Cifra Club

No me sueltes

Los Dynamite

Cifra: Principal (violão e guitarra)
Selo Cifra Club: esta cifra foi revisada para atender aos critérios oficiais da nossa Equipe de Qualidade.
tom: F#m
E|------------------------------------------------------|
B|------------------------------------------------------|
G|--777-9-9-9-9-(x2)---777-9-9-999---777-9-9-9-9--9-7---|
D|---------------------------------------------------7--|
A|------------------------------------------------------|
E|------------------------------------------------------|

E|------------------------------------------------------|
B|------------------------------------------------------|
G|--777-9-9-9-9--777-9-9-9-9(s)4--4(s)6-6-7-777-9-9-9-9-|
D|------------------------------------------------------|
A|------------------------------------------------------|
E|------------------------------------------------------|

E|------------------------------------------------------|
B|------------------------------------------------------|
G|--777-9-9999999999777-9-9-9-9--777-9-9-9-9-9-9-9-9-9--|
D|------------------------------------------------------|
A|------------------------------------------------------|
E|------------------------------------------------------|

guitarra 1
E|--------------------------------------------------------------|
B|--------------------------------------------------------------|
G|--------------------------------------------------------------|
D|--6-7---7-6---6666777777776666666--6-7---7-6---666-6-6-----6--|
A|-------------------------------------------------------5-7----|
E|--------------------------------------------------------------|
la la la, hoy no me sueltes no...
E|------------------------------------------------------|
B|------------------------------------------------------|
G|------------------------------------------------------|
D|-6-77-7-7-6-6--6--6--6--7-7-7777-7-77-6-6-66666666----|
A|------------------------------------------------------|
E|------------------------------------------------------|

 no no no, no me dejes por favor, si si me dejas...

(recomendable escuchar la rola
para el cambio de rasgueo en esta parte)
           guitarra 1                                guitarra 2
  G5(x4)  F#5(x4)  D5(x4)  F#5(x4)-> x6     E5(x8)  C#5(x4)  G5   E5
E|----------------------------------------------------------------------|
B|----------------------------------------------------------------------|
G|--7--------6------14--------6---------------9--------6-------12----9--|
D|--5--------4------12--------4---------------9--------6-------12----9--|
A|--------------------------------------------7--------4-------10----7--|
E|----------------------------------------------------------------------|

no no, por favor hoy no me sueltes, en las mañanas me arrepiento...
guitarra 1
E|--------------------------------------------------|
B|--------------------------------------------------|
G|--777-9-9-9-9-(x4)--777-9999999--777-9-9-9-9--9-7-|
D|----------------------------------------------7---|
A|--------------------------------------------------|
E|--------------------------------------------------|
yo solo asusto a las personas...
E|----------------------------------------------|
B|----------------------------------------------|
G|--777-9999999--777-9-9-9-9-9-9-9-9-9----------|
D|----------------------------------------------|
A|----------------------------------------------|
E|----------------------------------------------|

guitarra 2
E|------------------------------------------|
B|------------------------------------------|
G|------------------------------------------|
D|---------4(x9)--7(x9)---------------------|
A|--7(x18)---------------4(x9)--------------|
E|------------------------------------------|

no no no no, no me sueltes por favor,, si si me sueltas....
guitarra 1
  G5(x4)  F#5(x4)  D5(x4)  F#5(x4)-> x5
E|------------------------------------------|
B|------------------------------------------|
G|--7--------6------14--------6-------------|
D|--5--------4------12--------4-------------|
A|------------------------------------------|
E|------------------------------------------|


Bueno pues esta es mi primer transcripcion jejeje, aparte es una
rola muy chida y se escucha sencilla!! a peticion de nuestro
buen amigo Gama y para los Jacks un cover!!
Outros vídeos desta música
    44 exibições
      • ½ Tom
      • Am
      • Bbm
      • Bm
      • Cm
      • C#m
      • Dm
      • Ebm
      • Em
      • Fm
      • F#m
      • Gm
      • G#m
    • Adicionar à lista

    Afinação da cifra

    Afinador online

      0 comentários

      Ver todos os comentários

      Entre para o Cifra Club PRO

      Tenha acesso a benefícios exclusivos no App e no Site

      • Chega de anúncios

      • Mais recursos no app do Afinador

      • Atendimento Prioritário

      • Aumente seu limite de lista

      • Ajude a produzir mais conteúdo

      Cifra Club Pro

      Aproveite o Cifra Club com benefícios exclusivos e sem anúncios
      Cifra Club Pro
      Aproveite o Cifra Club com benefícios exclusivos e sem anúncios
      OK