Cifra Club

Mira niñita

Los Jaivas

Cifra: Versão 3 (violão e guitarra)
Selo Cifra Club: esta cifra foi revisada para atender aos critérios oficiais da nossa Equipe de Qualidade.
tom: C
INTRO : (esto va tocado junto con un teclado)


        F        F         F ... (6)
E|-------------------------------------|
B|--1---1------1---1-----0---0---------|
G|----------2----------2---------2-----|
D|----3---3------3---3-----3---3-------|
A|-------------------------------------|
E|--1----------1---------1-------------|

        F        F         F         F 
E|--------------------------------------------|
B|--1---1------1---1-----0---0-----1---1------|
G|----------2----------2---------2---------2--|
D|----3---3------3---3-----3---3-----3---3----|
A|--------------------------------------------|
E|--1----------1---------1---------1----------|
        C        C         G         G
E|--------------------------------------------|
B|--1---1-----1---1-----0---0-----3---3-------|
G|----------0---------0---------0---------0---|
D|----2---2-----2---2-----0---0-----0---0-----|
A|--3---------3-------------------------------|
E|----------------------3---------3-----------|

VERSOS:

        F        F         F         F 
E|--------------------------------------------|
B|--1---1------1---1-----1---1-----1---1------|
G|----------2----------2---------2---------2--|
D|----3---3------3---3-----3---3-----3---3----|
A|--------------------------------------------|
E|--1----------1---------1---------1----------|
     Mira     niñita,  te voy  a  llevar a ver la


      C        C         G         G
E|--------------------------------------------|
B|--1---1-----1---1-----0---0-----3---3-------|
G|----------0---------0---------0---------0---|
D|----2---2-----2---2-----0---0-----0---0-----|
A|--3---------3-------------------------------|
E|----------------------3---------3-----------|
    luna   brillando en el  mar ( y asi sigue con estos mismos
                                        arpegios)

F 
Mira hacia el cielo y olvida
               C 
Ese lánguido temor
                       G  
Que fue permanente emoción.....
F                         C 
Ay..., fue permanente emoción.
F 
Para la hija de un hombre
                C 
Con ojos de cristal
                       G  
Y papel sellado en la piel.


INTRO (completo)


F 
Mira niñita, te voy a llevar
         C                    G  
A ver la luna brillando en el mar.
F 
Mira hacia el cielo y olvida
             C 
Ese lánguido temor
                       G        ( justo aqui los arpegios se dejan de lado
Que fue permanente emoción.....   y comienza con rasgueado bien especial )



F                         C 
Ay..., fue permanente emoción.
F 
Para la hija de un hombre
                C 
Con ojos de cristal
                       G  
Y papel sellado en la piel.


G  O:

E|---------------------------------------------------|
B|---------------------------------------------------|
G|--5----4-5-5-5-4h5-4h5-5-4----------4--------------|
D|-----7---------------------7----5-7---5------------|
A|---------------------------------------------------|
E|---------------------------------------------------|

E|---------------------------------------------------|
B|---------------------------------------------------|
G|-----------------7--10-10-10-10-9h10-9h10-9-7------|
D|--7-9-10--7-9-10------------------------------10---|
A|---------------------------------------------------|
E|---------------------------------------------------|

E|---------------------------------------------------|
B|---------------------------------5-5h6h5-----------|
G|-------7--9h10-9h10--9-7-7---5-7---------7-5-7-----|
D|--7-10---------------------------------------------|
A|---------------------------------------------------|
E|---------------------------------------------------|

E|---------------------------------------------------|
B|--5-5h6h5-------5-5h6h5-------5-5h6h5--------------|
G|----------7-5-7---------7-5-7---------7-5----------|
D|---------------------------------------------------|
A|---------------------------------------------------|
E|---------------------------------------------------|

E|---------------------------------------------------|
B|---------------------------------------------------|
G|-----7-9-10--9h10-9h10--9-7---7--------7-9-10------|
D|--10-------------------------------10--------------|
A|---------------------------------------------------|
E|---------------------------------------------------|

E|--------------------------------------------------------------------|
B|---------------------------------------9-10^-10^--------------------|
G|--10-10--9h10h9--7-9-10--10/12-12-12-------------10-12-13--13-12-10-|
D|--------------------------------------------------------------------|
A|--------------------------------------------------------------------|
E|--------------------------------------------------------------------|

E|--------------------------------------------------------------|
B|--------------------------------------------------------------|
G|--10| 12 13 13 12 10--------10 12 13^-13^--12------------------|
D|----------------------12--------------------------------------|
A|--------------------------------------------------------------|
E|--------------------------------------------------------------|

  Luego de este solo de guitarra hay un solo de una 'Quena' y de Teclado.
  A continuación viene esto.



F 
Mira hacia el cielo y olvida
               C 
Ese lánguido temor
                       G  
Que fue permanente emoción.....


E|---------------------|
B|---------------------|
G|--12^--10-12-13--13^-|
D|---------------------|
A|---------------------|
E|---------------------|
     F                        C 
      Ay..., fue permanente emoción.


E|--10--12--13^-|
B|--------------|
G|--------------|
D|--------------|
A|--------------|
E|--------------|
                   F                           C 
                   Ay, tu pelito y tus ojos de miel



E|------10-10h12h10------10h12h10--12-13^-|
B|--13----------------13------------------|
G|----------------------------------------|
D|----------------------------------------|
A|----------------------------------------|
E|----------------------------------------|

E|--------------------------------------------------------------|
B|----12--------------------------------------------------------|
G|-12----12--10^------------10-10h13h10-------------10| 10h13h10-|
D|------------------10--12----------------12-10-12--------------|
A|--------------------------------------------------------------|
E|--------------------------------------------------------------|

F                          C         G  
   Pero ya en tu pecho florecerán Colores de amor.



E|-----------------------------------------------|
B|-----------------------------------------------|
G|------------10-10h13h10---------------10-------|
D|--12-10-12---------------12-10-12----------12^-|
A|-----------------------------------------------|
E|-----------------------------------------------|

E|-----------------------------------------|
B|---------------------------------10--12^-|
G|---10/9---------------12--10--10---------|
D|---------12-10----10---------------------|
A|-----------------------------------------|
E|-----------------------------------------|
                                               F         C    G  
                                                 Florecerán,


E|--13-12---10----------------|
B|--------------13--13--13^---|
G|----------------------------|
D|----------------------------|
A|----------------------------|
E|----------------------------|
                                      F 
                                       tu pelito....




E|------10-10h12h10------------------------------------------------|
B|--13---------------13-12-10---------12-12---10---10-12-13-13--13-|
G|-----------------------------10h12-------------------------------|
D|-----------------------------------------------------------------|
A|-----------------------------------------------------------------|
E|-----------------------------------------------------------------|
    F                           C        G  
   Ay, la ternura tendrás para ti, para ti.
                                                                                                   F         C 
                                                                                                      Florecerán,

E|--13--12--10--12--13-12-10--12-12--13^----13/15-15-13--12----|
B|-------------------------------------------------------------|
G|-------------------------------------------------------------|
D|-------------------------------------------------------------|
A|-------------------------------------------------------------|
E|-------------------------------------------------------------|
                                                     F         C 
                                                       tu pelito,


E|--12--13^----------------------------------------------------|
B|----------------------------12h13-13-13-12-10----------------|
G|----------------------------------------------12-12-12-12----|
D|-------------------------------------------------------------|
A|-------------------------------------------------------------|
E|-------------------------------------------------------------|
                 F                         C        G  
                   Pero ya en tu pecho florecerán Colores de amor.......




E|---------------------------------------------------|
B|-------------10--------10--------10---13^----------|
G|--10^--10-12-----10-12-----10-12-------------------|
D|---------------------------------------------------|
A|---------------------------------------------------|
E|---------------------------------------------------|
Outros vídeos desta música
    386 exibições
      • ½ Tom
      • A
      • Bb
      • B
      • C
      • Db
      • D
      • Eb
      • E
      • F
      • F#
      • G
      • Ab
    • Adicionar à lista

    Afinação da cifra

    Afinador online

      0 comentários

      Ver todos os comentários

      Conseguiu tocar?

      0Tocaram0Ainda não

      Grave um vídeo tocando Mira niñita e nos envie!

      Toque também

      1. Imagem do artista Los TresAmor Violento Los Tres
      2. Imagem do artista Manuel GarciaEl viejo comunista Manuel Garcia
      3. Imagem do artista Joe VasconcellosTú És Maior Joe Vasconcellos
      4. Imagem do artista Inti-IllimaniLa Exiliada Del Sur Inti-Illimani

      Entre para o Cifra Club PRO

      Tenha acesso a benefícios exclusivos no App e no Site

      • Chega de anúncios

      • Mais recursos no app do Afinador

      • Atendimento Prioritário

      • Aumente seu limite de lista

      • Ajude a produzir mais conteúdo

      Cifra Club Pro

      Aproveite o Cifra Club com benefícios exclusivos e sem anúncios
      Cifra Club Pro
      Aproveite o Cifra Club com benefícios exclusivos e sem anúncios
      OK