Cifra Club

Sube a Nacer Conmigo Hermano

Los Jaivas

Cifra: Versão 4 (violão e guitarra)
Selo Cifra Club: esta cifra foi revisada para atender aos critérios oficiais da nossa Equipe de Qualidade.
tom: C#m
introduccion : C#m -F#m -G#  

 C#m -F#m -G#     G#  
sube a nacer conmigo hermano (2)
C#m     F#m          G#  
dame la mano desde la profunda zona
C#m     F#m      G#  
de tu dolor diseminado (3)
no volveras, del fondo de las rocas
no volveras, del tiempo subterraneo
no vovera, tu voz endurecida
no volveran, tus ojos taladrados
sube a nacer conmigo hermanoo.....

G|---------------------------------------5----------|
D|-----6-4-7-4-6---------------6-4-7-4-6---6--------| FIG.(1)
A|-4-7-----------6-3-----3-4-7-------------------3-4|
E|-------------------4-6---------------------4-6----|


mirame desde el fondo de la tierra
labrador, tejedor, pastor callado
domador de guanacos tutelares
albañil del andamio desafiado (3)
aguador de las lagrimas andinas
joyero de los dedos machacados
agricultor temblando en la semilla
alfarero en tu greda derramado (3)
traed a la copa de esta nueva vida
vuestros viejos dolores enterrados
sube a nacer conmigo hermanooooo................

E|-14-16----------14-16-------------14-16-16-16-16-16-14------14-14--|
B|-------16^17-16-------16^17-16-17----------------------17-16-----16|

E|-14/16-16-16-16---------------------------------------------------|
B|----------------17-17-16-16-14-14-14-13---------14-14-14-14-16-14-|
G|----------------------------------------13-13-13------------------|

B|----14-16-16----16^17-17-17-14-14-------------------|
G|-17----------17-------------------16-16-------14-13-|
D|----------------------------------------16-16-------|


mostradme vuestra sangre y vuestro surco
decidme : aqui fui castigado
porque la joya no brillo
o la tierra no entrego a tiempo la piedra o el grano
señaladme la piedra en que caisteis
y la madera en que os crucificaron
encendedme los viejos pedernales
las viejas lamparas los latigos pegados
a traves de los en las llagas
y las hachas de brillo ensangrentado
yo vengo a hablar por vuestra boca muertaaa.......FIG.(1)

contadme todo cadena a cadena
eslabon a eslabon, paso a paso
afilad los cuchillos que guardasteis
ponedlos en mi pecho y en mi mano
como rios de rayos amarillos
como un rio de tigres enterrados
y dejadme llorar, horas, dias, años
edades ciegas, ciclos estelares.FIG(1)

D|-6^7^6^7^6^7^6^7^6^7^6^7^6---------------------| FIG.(2)
A|---------------------------7^8^7^8^7/6^7^6^7^6-|

D|-6^7^6^7^6-6^7^6^7^6-6^7^6^7^6-| FIG.(3)
Outros vídeos desta música
    42 exibições
      • ½ Tom
      • Am
      • Bbm
      • Bm
      • Cm
      • C#m
      • Dm
      • Ebm
      • Em
      • Fm
      • F#m
      • Gm
      • G#m
    • Adicionar à lista

    Afinação da cifra

    Afinador online

      0 comentários

      Ver todos os comentários

      Conseguiu tocar?

      0Tocaram0Ainda não

      Grave um vídeo tocando Sube a Nacer Conmigo Hermano e nos envie!

      Toque também

      1. Imagem do artista Los TresAmor Violento Los Tres
      2. Imagem do artista Manuel GarciaEl viejo comunista Manuel Garcia
      3. Imagem do artista Inti-IllimaniLa Exiliada Del Sur Inti-Illimani
      4. Imagem do artista IllapuVuelvo para vivir Illapu

      Entre para o Cifra Club PRO

      Tenha acesso a benefícios exclusivos no App e no Site

      • Chega de anúncios

      • Badges exclusivas

      • Mais recursos no app do Afinador

      • Atendimento Prioritário

      • Aumente seu limite de lista

      • Ajude a produzir mais conteúdo

      Cifra Club Pro

      Aproveite o Cifra Club com benefícios exclusivos e sem anúncios
      Cifra Club Pro
      Aproveite o Cifra Club com benefícios exclusivos e sem anúncios
      OK