Cifra Club

All You Sons And Daughters

Matthew Good

Cifra: Principal (violão e guitarra)
Selo Cifra Club: esta cifra foi revisada para atender aos critérios oficiais da nossa Equipe de Qualidade.
tom: F#m
    F#m                                   E
E|---------------------------------------------------------------------------|
B|---------------------------------------------------------------------------|
G|-6-6-7-6-6-6-7-6-6-6-7-6-6-6-999-7-6-------6-------6-------6-------666-----|
D|-------------------------------------9-9-9-----9-9-----9-9-----9-9-----9-7-|
A|---------------------------------------------9-------9-------9-------------|
E|---------------------------------------------------------------------------|
    D                                   A
E|-----------------------------------------|
B|-----------------------------------------|
G|-----------------------------666---------|
D|-7-7-9---7-7-9---7-7-9---7-7-----9-7-7---|
A|-------7-------7-------7-----------------|
E|-----------------------------------------|


A
Netted dolphin in the deep
F#m
little coyote, shame on me
E
new horizon, no memory
D                                           A
didn't know it then but I want to know it now

it's time to get up
F#m                      E
rub your eyes and set off into the sun
                   D
you know we don't get enough around here

Bm      D                        A    E          D     
All you sons and daughters gotta hide yourselves away
Bm          D                   A    E          D
before they burn it out of you, hide yourselves away
      Bm   A          D
gotta hide yourselves away

Play Intro Riff

A
Used to call me late at night
F#m
Locked in your car trying to hide
E
from one disaster to one in line
D
didn't know it then, shouldn't have to know it now  (Variation of intro riff starts playing now)
A
it's time to wake up
F#m                      E
rub your eyes and set off into the sun
                   D
you know we don't get enough around here


Bm      D                        A    E          D     
All you sons and daughters gotta hide yourselves away
Bm          D                   A    E          D
before they burn it out of you, hide yourselves away
      Bm   A          D
gotta hide yourselves away

       F#m                 E                   D
E|---------------------------------------------------------------------|
B|---------------------------------------------------------------------|
G|----6-6-7-6-6-6-777-6---6-6-7-6-6-6-999-7-6-6-6-7-6-6-6-777-6--------|
D|-7--------------------7---------------------------------------7-4----|
A|---------------------------------------------------------------------|
E|---------------------------------------------------------------------|

End on F#m

Chords:
Bm [x 2 4 4 3 2]
A  [0 0 2 2 2 0]
F#m[2 4 4 2 2 2]
D  [x x 0 2 3 2]
E  [0 2 2 1 0 0]
Outros vídeos desta música
    5 exibições
      • ½ Tom
      • Am
      • Bbm
      • Bm
      • Cm
      • C#m
      • Dm
      • Ebm
      • Em
      • Fm
      • F#m
      • Gm
      • G#m
    • Adicionar à lista

    Afinação da cifra

    Afinador online

      0 comentários

      Ver todos os comentários

      Entre para o Cifra Club PRO

      Tenha acesso a benefícios exclusivos no App e no Site

      • Chega de anúncios

      • Badges exclusivas

      • Mais recursos no app do Afinador

      • Atendimento Prioritário

      • Aumente seu limite de lista

      • Ajude a produzir mais conteúdo

      Cifra Club Pro

      Aproveite o Cifra Club com benefícios exclusivos e sem anúncios
      Cifra Club Pro
      Aproveite o Cifra Club com benefícios exclusivos e sem anúncios
      OK