Cifra Club

Zamba para no morir

Mercedes Sosa

Cifra: Principal (violão e guitarra)
tom: E
B||--8--8--6--8------6--6-----6--3--4--4-3--4-----3--3-2--3------------------
G||--8-----7--8-----¿7?----8--3-----5-------3--------------------------------
D||------------------8-------------¿5?------------3-------3------------------
A||--6-----5------------------------3-------------1--------------------------
E||-----------8------6--------3---------------------------3------------------


                   CVI   CIII…………………………………………………… CV……………………
E||--------------7h8-----5--6--5-6-5-3--------3--3----3----------------------
B||--8--8--6--8-------6-----3-----------4--6--------5----7--5-7-5-7----------
G||--8-----7--8------¿7?-----------------------------------------------------
D||-------------------8----------------------------------7-------------------
A||--6-----5----------------------------3--------5---------------------------
E||-----------8-------6-----3----------------------------5-------------------

    CIII……………………………………………………………
E||--3----------------3-3-3---3----------------------------------------------
B||---------3-------3---------3----------------------------------------------
G||--3----3-------3-----------3----------------------------------------------
D||---------------------------5----------------------------------------------
A||-----5-----5h6-------------5----------------------------------------------
E||--3------------------------3----------------------------------------------


A.Entre interrogaciones van notas que pertenecen al acorde,
 pero que no consigo escuchar en el audio.
B.En algunas partes, la cejilla se podría quitar.
 Supongo que dependerá de la destreza de cada uno.
C.Algunos acordes son pulsados simultáneamente, y otros rasgueados, pero no
 conozco la técnica para escribirlo en este sistema.
Composição de Hamlet Lima Quintana
322 exibições
    • ½ Tom
    • A
    • Bb
    • B
    • C
    • Db
    • D
    • Eb
    • E
    • F
    • F#
    • G
    • Ab
  • Adicionar à lista

    0 comentários

    Ver todos os comentários

    Conseguiu tocar?

    0 Tocaram 0 Ainda não

    Grave um vídeo tocando Zamba para no morir e nos envie!

    00:00 / 00:00
    Outros vídeos desta música
    Repetir Qualidade Automático
    Outros vídeos desta música
    00:00 / 00:00
    Automático

    Cifra Club Pro

    Aproveite o Cifra Club com benefícios exclusivos e sem anúncios
    Cifra Club Pro
    Aproveite o Cifra Club com benefícios exclusivos e sem anúncios
    OK