Cifra Club

Aprenda

Pense Em Mim

Musical Calmon

Cifra: Principal (violão e guitarra)
Tom: C
INTRODUÇÃO:

Am               F             C9            G
E|--------5-------------5-------------3-------------3-------|
B|------5---5---------6---6---------3---3---------3---3-----|
G|----5-------5-----5-------5-----5-------5-----4-------4---|
D|----------------------------------------------------------|
A|----------------8-------------3---------------------------|
E|--5-----------------------------------------3-------------|

SOLO:

Am           F           C             G
E|----------------------------------------------------------|
B|------------------------------------------5/7-8-----------|
G|----4-5---4-5---4-5---4-5----5----7/9-7---------9-7-------|
D|--7-----7-----7-----7------5---5--------------------------|
A|----------------------------------------------------10----|
E|----------------------------------------------------------|

Am           F           C             G
E|----------------------------------------------------------|
B|------------------------------------------5/7-8-----------|
G|----4-5---4-5---4-5---4-5----5----7/9-7---------9-7-------|
D|--7-----7-----7-----7------5---5--------------------------|
A|----------------------------------------------------10----|
E|----------------------------------------------------------|

1º PARTE:

Am                       F
  inspiração dos meus sonhos

  n quero acordar
C9                    G
  quero ficar só contigo

  não vou poder voar
Am                      F

  pra que para pra refletir
                     C9
  se meu reflexo é você aprendendo
           G
  uma só vida compartilhando prazer

Am                      F
  por que parece que na hora

  não vou aguentar
C9
  se eu sempre tive forças
  G
  nunca parei de lutar
Am
  como num filme
       F
  no final tudo vai dar certo
C9
  quem foi que disse
          G
  que pra tá junto precisa tá perto


  REFRÃO:
Am
  pense em mim
F                            C9
  que eu estou pensando em você e me diz
G                     Am
  o que eu quero te dizer vem pra cá
F                        C9
  pra ver que juntos estamos e te falar
G                        Am
  mais uma vez que te amo


Am           F           C9            G
E|----------------------------------------------------------|
B|------------------------------------------5/7-8-----------|
G|----4-5---4-5---4-5---4-5----5----7/9-7---------9-7-------|
D|--7-----7-----7-----7------5---5--------------------------|
A|----------------------------------------------------10----|
E|----------------------------------------------------------|

Am           F           C9            G
E|----------------------------------------------------------|
B|------------------------------------------5/7-8-----------|
G|----4-5---4-5---4-5---4-5----5----7/9-7---------9-7-------|
D|--7-----7-----7-----7------5---5--------------------------|
A|----------------------------------------------------10----|
E|----------------------------------------------------------|

2ºPARTE:

Am                     F
  o tempo que passamos juntos

  vai ficar pra sempre
C9                  G
  intimidades,brincadeiras

  só agente entendi

Am                       F
  pra quem falar que namorar

  é perder tempo eu digo
C9                        G
  ah muito tempo e não cresci

  o que cresci contigo

Am                     F
  juntos no balanço da rede

  sobre o céu estrelado
C9                        G
  sempre acontece o tempo para

  quando estou do seu lado

Am                       F
  a noite chega fecho os olho

  e é você quem vejo
C9                        G
  como eu queria estar contigo

  eu paro e faço um desejo

  REFRÃO:
Am
  pense em mim
F                            C9
  que eu estou pensando em você e me diz
G                     Am
  o que eu quero te dizer vem pra cá
F                        C9
  pra ver que juntos estamos e te falar
G                        Am
  mais uma vez que te amo

SOLO:
2°PARTE:
REFRÃO:

FIM SOLO:
Colaboração e revisão:
  • jackson dresch
2.555 exibições
    • ½ Tom
    • A
    • Bb
    • B
    • C
    • Db
    • D
    • Eb
    • E
    • F
    • F#
    • G
    • Ab
  • Adicionar à lista

    0 comentários

    Mostrar mais comentários

    Conseguiu tocar?

    0 Tocaram 0 Ainda não

    Grave um vídeo tocando Pense Em Mim e mande pra gente!

    00:00 / 00:00
    outros vídeos desta música
    repetir qualidade Automático
    Outros vídeos desta música
    00:00 / 00:00
    Automático
    OK