Cifra Club

Você Merece o Oscar

Musical San Francisco

Cifra: Principal (violão e guitarra)
exibições 18.284
Tom: F
              F
Você merece o oscar
        C           Dm
Todo o tempo foi atriz
       Am             Bb
Só me usou pra ser feliz
      Am         Gm
Nada fiz pra merecer
       Bb            C            F
Nunca vi ninguém fingir igual você


--Solo adaptado para violão/guitarra (By Tsunash)--

                F         C               Dm        Am
E|-----------------13-13-12-13-15-15b17r-13~-13-13-12-10--------|
B|-------10-11-13~---------------------------------------13-10--|
G|-10-12--------------------------------------------------------|
D|--------------------------------------------------------------|
A|--------------------------------------------------------------|
E|--------------------------------------------------------------|

    Bb          Gm              C              F
E|-10-13----13-----------------------------------|
B|-------13----11~--11-10-8----8~--10-8----------|
G|--------------------------10----------10-9-10~~|
D|-----------------------------------------------|
A|-----------------------------------------------|
E|-----------------------------------------------|

      F
Ta difícil acreditar
        Dm
Foi preciso ver pra crer
        Bb              Gm
Diz que isso é uma miragem
      Bb         C
essa aí não é você.

---------------------------------
     F
Os amigos me alertaram
       Dm
mas eu não quis enxergar
         Bb          Gm
Eu, que me achava esperto
     Bb          C
veja onde fui parar!

C  C#m  Dm
     Frente a frente
                     Am
Com você e outra pessoa
                     Bb
de mãos dadas, numa boa
                     Am
eu, que sempre fui fiel
     Dm                    Am
A mocinha deste filme foi vilã
     Am      C       Bb
Parabéns, ganhou um fã
                  C
Só te falta o troféu

--Refrão--
               F
Você merece o oscar
      C            Dm
Em matéria de enganar
      Am            Bb
Você soube interpretar
      Am          C
E eu caí nessa novela

                 F
Você merece o oscar
      C           Dm
Todo tempo foi atriz
        Am            Bb
Só me usou pra ser feliz
      Am          Gm
Nada fiz pra merecer
       Bb            C           F
Nunca ví ninguem fingir igual você
Acordes para:
    Composição: Belluco / Tche do Swing Colaboração e revisão:
    • Giovani Scalcon
    • marcos vieira

    0 comentários

    mostrar mais comentários

    Conseguiu tocar?

    1 tocaram 0 ainda não

    Grave um vídeo tocando Você Merece o Oscar e mande pra gente!

    00:00 / 00:00
    outros vídeos desta música
    repetir qualidade Automático
    Outros vídeos desta música
    00:00 / 00:00
    Automático
    OK