Cifra Club

Promises Promises

Naked Eyes

Cifra: Principal (violão e guitarra)
Selo Cifra Club: esta cifra foi revisada para atender aos critérios oficiais da nossa Equipe de Qualidade.
tom: Am
INTRO:

   ** MAIN RIFF ** 

   C   D11  Dm7  Em7

E|-8----5----5----7--|
B|-8----5----6----8--|
G|-9----5----5----7--|
D|-10---5----7----9--|
A|-x----5----5----7--|
E|-x----5----x----x--|

   C   D11  Dm7  Em7

E|-8----5----5----7--|
B|-8----5----6----8--|
G|-9----5----5----7--|
D|-10---5----7----9--|
A|-x----5----5----7--|
E|-x----5----x----x--|


VERSE:
(Am)  (G)    (D)
Never had a doubt       A -5-5-5-5h7--

(Em)        (Am)             sl
In the beginning        A ---5\3--

(Fmaj7)(Em7)(D)
Never    a  doubt       A -5-5-5-5h7--

(Fmaj7) (G) (D)
Trusted too true        A -5-5-5-5h7--

(Em)        (Am)            sl
In the beginning        A --5\3--
 
 (Fmaj7)   (G)     (D)  
I loved you right through     A -5-5-5-5h7--


BDA K:
Fmaj7            G6
 Arm in arm we laughed like kids
  Fmaj7          Em7/D
At all the silly things we did


CHORUS: 
(Am)(G) (F) (Am)                (F)(Em)(Dm)
You made me promises, promises

 (Em7)  (Am)  (Em)        
Knowing I'd believe
E|-10-10\8--|
B|-10-10\8--|

(Fmaj7)            (Fmaj7)(Em)(Am)
Promises, promises

    (Am)              C
You knew you'd never keep


   ** MAIN RIFF **

   C   D11  Dm7  Em7

E|-8----5----5----7--|
B|-8----5----6----8--|
G|-9----5----5----7--|
D|-10---5----7----9--|
A|-x----5----5----7--|
E|-x----5----x----x--|


VERSE:
 (Am)  (Em)   (D)
Second time around       A -5-5-5-5h7--

    (Em)       (Am)          sl
I'm still believing      A --5\3--

(Fmaj7)   (Em)  (D) 
Words that you said      A -5-5-5-5h7--

               (Fmaj7)(Em)(D)
You said you'd always  be here    A -5-5-5-5h7--

(Em)       (Am)                 sl
In love forever             A --5\3--

         (Am)    (G) (D)
Still repeats in my head    A -5-5-5-5h7--


BDA K:
Fmaj7              G6
 You can't finish what you start
   Fmaj7           Em7/D
If this is love it breaks my heart


CHORUS: 
(Am)(G)(Fmaj7) (C)                (F)(Em)(Dm)
You made me    promises, promises

    (Am)             (Em) 
You knew you'd never keep
E|-10-10\8---8--|
B|-10-10\8---8--|

(Fmaj7)            (Fmaj7)(Em)(Dm)
Promises, promises

(Em7)         C  
Why do I  believe


   ** MAIN RIFF **

   C   D11  Dm7  Em7

E|-8----5----5----7--|
B|-8----5----6----8--|
G|-9----5----5----7--|
D|-10---5----7----9--|
A|-x----5----5----7--|
E|-x----5----x----x--|

   C   D11  Dm7  Em7

E|-8----5----5----7--|
B|-8----5----6----8--|
G|-9----5----5----7--|
D|-10---5----7----9--|
A|-x----5----5----7--|
E|-x----5----x----x--|


INSTRUMENTAL FILL:

E|-15-15-15--12-12-12--8-8-8-----10-10-10--10-10-10--8-8-8--|
B|-15-15-15--12-12-12--8-8-8-----10-10-10--10-10-10--8-8-8--|
G|----------------------------------------------------------|
D|----------------------------------------------------------|
A|----------------------------------------------------------|
E|----------------------------------------------------------|

E|-15-15-15--12-12-12--8-8-8-----10-10-10--10-10-10--8-8-8--|
B|-15-15-15--12-12-12--8-8-8-----10-10-10--10-10-10--8-8-8--|
G|----------------------------------------------------------|
D|----------------------------------------------------------|
A|----------------------------------------------------------|
E|----------------------------------------------------------|


BDA K:
Fmaj7            G6
 Arm in arm we laughed like kids
  Fmaj7          Em7/D
At all the silly things we did

BDA K:
Fmaj7              G6
 You can't finish what you start
   Fmaj7           Em7/D
If this is love it breaks my heart


CHORUS: 
(Am)(G) (F)                   (F)(Em)(Dm)
You made me promises, promises
E|--10\8--|
B|--10\8--|
    (Am)               
You knew you'd never keep
E|--10\8--|
B|--10\8--|

(Fmaj7)            (Fmaj7)(Em)(Dm)
Promises, promises
E|--10\8--|
B|--10\8--|
   (Am)     (Em)
Why do I believe
E|--10\8---8--|
B|--10\8---8--|

CHORUS:
(Fmaj7)               (Fmaj7)(Em)(Am)   
All of your promises
E|--10\8---8--|
B|--10\8---8--|
    (Am)             
You knew you'd never keep
E|--10\8---8--|
B|--10\8---8--|
(Fmaj7)            
Promises, promises
E|-10-10-10--10-10-10--8-8-8--|
B|-10-10-10--10-10-10--8-8-8--|

(Dm7)       (Am)  (Fmaj7)
Why do I believe

E|-15-15-15--12-12-12--8-8-8-----10-10-10--10-10-10--8-8-8--|
B|-15-15-15--12-12-12--8-8-8-----10-10-10--10-10-10--8-8-8--|
G|----------------------------------------------------------|
D|----------------------------------------------------------|
A|----------------------------------------------------------|
E|----------------------------------------------------------|

Am       Fmaj7                      Am       Fmaj7  Promises                            Promises

E|-15-15-15--12-12-12--8-8-8-----10-10-10--10-10-10--8-8-8--|
B|-15-15-15--12-12-12--8-8-8-----10-10-10--10-10-10--8-8-8--|
G|----------------------------------------------------------|
D|----------------------------------------------------------|
A|----------------------------------------------------------|
E|----------------------------------------------------------|

Am       Fmaj7                      Am       Fmaj7  Promises                            Promises

E|-15-15-15--12-12-12--8-8-8-----10-10-10--10-10-10--8-8-8--|
B|-15-15-15--12-12-12--8-8-8-----10-10-10--10-10-10--8-8-8--|
G|----------------------------------------------------------|
D|----------------------------------------------------------|
A|----------------------------------------------------------|
E|----------------------------------------------------------|

Am       Fmaj7                      Am       Fmaj7  Promises                            Promises

E|-15-15-15--12-12-12--8-8-8-----10-10-10--10-10-10--8-8-8--|
B|-15-15-15--12-12-12--8-8-8-----10-10-10--10-10-10--8-8-8--|
G|----------------------------------------------------------|
D|----------------------------------------------------------|
A|----------------------------------------------------------|
E|----------------------------------------------------------|


*** CHORDS USED ***

Em7/D    Fmaj7   G6

E -12-   -0-    -0-
B -12-   -1-    -3-
G -12-   -2-    -4-
D -12-   -3-    -5-
A|-x--| -x-    -x-
E|-x--| -x-    -x-
Outros vídeos desta música
    49 exibições
      • ½ Tom
      • Am
      • Bbm
      • Bm
      • Cm
      • C#m
      • Dm
      • Ebm
      • Em
      • Fm
      • F#m
      • Gm
      • G#m
    • Adicionar à lista

    Afinação da cifra

    Afinador online

      0 comentários

      Ver todos os comentários

      Entre para o Cifra Club PRO

      Tenha acesso a benefícios exclusivos no App e no Site

      • Chega de anúncios

      • Mais recursos no app do Afinador

      • Atendimento Prioritário

      • Aumente seu limite de lista

      • Ajude a produzir mais conteúdo

      Cifra Club Pro

      Aproveite o Cifra Club com benefícios exclusivos e sem anúncios
      Cifra Club Pro
      Aproveite o Cifra Club com benefícios exclusivos e sem anúncios
      OK