Cifra Club

Tem Cabaré Essa Noite

NATTAN

Cifra: Principal (violão e guitarra)
Selo Cifra Club: esta cifra foi revisada para atender aos critérios oficiais da nossa Equipe de Qualidade.
tom: A
[Intro] D  E  F#m
        D  E  F#m

[Tab - Solo Intro]

Parte 1 de 3
E|-----------------------------------------------------|
B|-10--10-10-10-10-9-10------10--10-10-10-10-9-7-------|
G|-----------------------------------------------------|
D|-11--11-11-11-11-9-11------11--11-11-11-11-9-7-------|
A|-----------------------------------------------------|
E|-----------------------------------------------------|

Parte 2 de 3
E|-----------------------------------------------------|
B|-10--10-10-10-10-9-10------10--10-10-10-10-9-7-------|
G|-----------------------------------------------------|
D|-11--11-11-11-11-9-11------11--11-11-11-11-9-7-------|
A|-----------------------------------------------------|
E|-----------------------------------------------------|

Parte 3 de 3
E|-----------------------------------------------------|
B|-14-12-10---10-9-7---7-5-2---------------------------|
G|-----------------------------------------------------|
D|-14-12-11---11-9-7---7-6-4---------------------------|
A|-----------------------------------------------------|
E|-----------------------------------------------------|

[Primeira Parte]

         F#m
Os teus pais

Não me aceitam em tua casa
            D
Já que não posso te ver
      E
Vou sair pra beber
       F#m
Meus amigos já estão na balada
      D
Vou sair, vou descer
      E
Embrasar no rolê

[Pré-Refrão]

D                 E
  Você não deu valor

Nunca se importou
A       G#m
  A partir de hoje
 F#m       E
Nosso amor acabou
D                  E
  Já foi, deu pra mim
                   F#m
Eu vou meter o louco

D                    E
  Não importa o que diga

Eu não vou voltar
A         G#m       F#m
  Adeus, curta tua vida
           E
Eu vou curtir de cá
D                 E
  Agora eu tô solteiro
                    F#m
E vou gritar pra todos

[Refrão]

                   D    E
E tem cabaré essa noite
                 F#m
Tem cabaré essa noite
                 D    E
Tem cabaré essa noite
                 F#m
Tem cabaré essa noite

                 D    E
Tem cabaré essa noite
                 F#m
Tem cabaré essa noite
                 D    E
Tem cabaré essa noite
                 F#m
Tem cabaré essa noite

[Solo] D  E  F#m
       D  E  F#m

[Tab - Solo]

Parte 1 de 3
E|-----------------------------------------------------|
B|-10--10-10-10-10-9-10------10--10-10-10-10-9-7-------|
G|-----------------------------------------------------|
D|-11--11-11-11-11-9-11------11--11-11-11-11-9-7-------|
A|-----------------------------------------------------|
E|-----------------------------------------------------|

Parte 2 de 3
E|-----------------------------------------------------|
B|-10--10-10-10-10-9-10------10--10-10-10-10-9-7-------|
G|-----------------------------------------------------|
D|-11--11-11-11-11-9-11------11--11-11-11-11-9-7-------|
A|-----------------------------------------------------|
E|-----------------------------------------------------|

Parte 3 de 3
E|-----------------------------------------------------|
B|-14-12-10---10-9-7---7-5-2---------------------------|
G|-----------------------------------------------------|
D|-14-12-11---11-9-7---7-6-4---------------------------|
A|-----------------------------------------------------|
E|-----------------------------------------------------|

[Primeira Parte]

           F#m
E os teus pais

Não me aceitam em tua casa
            D
Já que não posso te ver
      E
Vou sair pra beber
       F#m
Meus amigos já estão na balada
        D
Vou partir, vou descer
      E
Embrasar no rolê

[Pré-Refrão]

D                 E
  Você não deu valor

Nunca se importou
A       G#m
  A partir de hoje
 F#m       E
Nosso amor acabou
D                  E
  Já fui, deu pra mim
                   F#m
Eu vou meter o louco

D                    E
  Não importa o que diga

Eu não vou voltar
A         G#m       F#m
  Adeus, curta sua vida
           E
Eu vou curtir de cá
D                 E
  Agora eu tô solteiro
                  F#m
E vou gritar pra todos

[Refrão]

                   D    E
E tem cabaré essa noite
                 F#m
Tem cabaré essa noite
                 D    E
Tem cabaré essa noite
                 F#m
Tem cabaré essa noite

                 D    E
Tem cabaré essa noite
                 F#m
Tem cabaré essa noite
                 D    E
Tem cabaré essa noite
                 F#m
Tem cabaré essa noite

[Solo Final] D  E  F#m
             D  E  F#m

[Tab - Solo Final]

Parte 1 de 3
E|-----------------------------------------------------|
B|-10--10-10-10-10-9-10------10--10-10-10-10-9-7-------|
G|-----------------------------------------------------|
D|-11--11-11-11-11-9-11------11--11-11-11-11-9-7-------|
A|-----------------------------------------------------|
E|-----------------------------------------------------|

Parte 2 de 3
E|-----------------------------------------------------|
B|-10--10-10-10-10-9-10------10--10-10-10-10-9-7-------|
G|-----------------------------------------------------|
D|-11--11-11-11-11-9-11------11--11-11-11-11-9-7-------|
A|-----------------------------------------------------|
E|-----------------------------------------------------|

Parte 3 de 3
E|-----------------------------------------------------|
B|-14-12-10---10-9-7---7-5-2---------------------------|
G|-----------------------------------------------------|
D|-14-12-11---11-9-7---7-6-4---------------------------|
A|-----------------------------------------------------|
E|-----------------------------------------------------|
Outros vídeos desta música
    294.929 exibições
    • Simplificar cifra
      • ½ Tom
      • A
      • Bb
      • B
      • C
      • Db
      • D
      • Eb
      • E
      • F
      • F#
      • G
      • Ab
    • Adicionar à lista

    Afinação da cifra

    Afinador online

      0 comentários

      Ver todos os comentários

      Entre para o Cifra Club PRO

      Tenha acesso a benefícios exclusivos no App e no Site

      • Chega de anúncios

      • Badges exclusivas

      • Mais recursos no app do Afinador

      • Atendimento Prioritário

      • Aumente seu limite de lista

      • Ajude a produzir mais conteúdo

      Capítulos
      • Apresentação
      • Tocando a Música
      • Dicas Iniciais e Acordes
      • Ensinando a Intro e Primeira Parte
      • Ensinando o Pré-Refrão
      • Ensinando o Solo
      • Explicando o Final e Encerramento

      Cifra Club Pro

      Aproveite o Cifra Club com benefícios exclusivos e sem anúncios
      Cifra Club Pro
      Aproveite o Cifra Club com benefícios exclusivos e sem anúncios
      Ops (: Contenido disponible sólo en portugués.
      OK