Cifra Club

Love You More Than Life

Neutral Milk Hotel

Cifra: Principal (violão e guitarra)
Selo Cifra Club: esta cifra foi revisada para atender aos critérios oficiais da nossa Equipe de Qualidade.
tom: A
Introdução

(O violonista atento vai logo perceber que são os acordes de Lá, Mi e Ré dedilhados. O distraído também.)

e|---------------------------------------------------------------
B|--------2-----------------0-----------3-------3----------2--2--
G|------2---2-------------1---1-------2---2---2---2------2----2--
D|----2-------2---------2-------2---0-------0----------2------2--
A|--0-----------0-0---2-----------2------------------0--------0--
E|------------------0--------------------------------------------

e|---------------------------------------------------------------0-
B|--------2-----------------0-----------3-------3---------------2--
G|------2---2-------------1---1-------2---2---2-------2---2----2---
D|----2-------2---------2-------2---0-------0-------2---2-----2----
A|--0-----------0-0---2-----------2---------------0----------0-----
E|------------------0----------------------------------------------


A
Let the world collapse and die
        E
It's sinking deeper in your eyes
    D
And I will sing my sweet surprise
     A
For no one.


A
Let the world collapse and swallow
E
All the loves you'll hold tomorrow
    D
And I will shield and I will follow
A
No one.

        E
And I'm all screwed up
         A
But I feel all right
 E                 A
Sinking deeper all the time
   E                      A
Inside a hole deep in my mind
        D                E
But I love you, I love you
           A
More than life.

A
Let the world collapse and fall
    E
It gave me no, nothing at all.
    D 
And I will shield and I will fault
     A
For no one.

A
Let it sink and let it shudder
E
All the words that I will utter
    D
In hopes your love will soon discover
A
No one.


          E
And I'm all screwed up
       A
But I feel all right
 E             A
Sinking deeper all the time
   E                A
Inside a hole deep in my mind
       D           E
But I love you, I love you
       D                     E
Oh, I love you, yes I love you
         D
Oh, I love you
 E         A
More than life
                E
More than life
                A
More than life
                E
More than life
                A
More than life


Solo (A E A E A)

e|----------------------------------------------------------
B|------2-3-2-3-2-5-5-5-5-5-3-2-3-2---2-2-----2-2-----------
G|--2-4-----------------------------4-----4-2-----4--2------

e|----------------------------------------------------------
B|------2-3-2-3-5-5-5-5-5-5-5-5-3-3-3-3-2-2-2-2-------------
G|--2-4------------------------------------------4-4-4-4-2--
Outros vídeos desta música
    1.158 exibições
      • ½ Tom
      • A
      • Bb
      • B
      • C
      • Db
      • D
      • Eb
      • E
      • F
      • F#
      • G
      • Ab
    • Adicionar à lista

    Afinação da cifra

    Afinador online

      0 comentários

      Ver todos os comentários

      Conseguiu tocar?

      0Tocaram0Ainda não

      Grave um vídeo tocando Love You More Than Life e nos envie!

      Toque também

      1. Imagem do artista The MicrophonesI Felt Your Shape The Microphones
      2. Imagem do artista Jeff MangumI Love How You Love Me Jeff Mangum
      3. Imagem do artista Andrew Jackson JihadPeople II: The Reckoning Andrew Jackson Jihad
      4. Imagem do artista Animal CollectiveHounds Of Bairro Animal Collective

      Entre para o Cifra Club PRO

      Tenha acesso a benefícios exclusivos no App e no Site

      • Chega de anúncios

      • Badges exclusivas

      • Mais recursos no app do Afinador

      • Atendimento Prioritário

      • Aumente seu limite de lista

      • Ajude a produzir mais conteúdo

      Cifra Club Pro

      Aproveite o Cifra Club com benefícios exclusivos e sem anúncios
      Cifra Club Pro
      Aproveite o Cifra Club com benefícios exclusivos e sem anúncios
      Ops (: Contenido disponible sólo en portugués.
      OK