Cifra Club

Tuesday Moon

Neutral Milk Hotel

Cifra: Principal (violão e guitarra)
Selo Cifra Club: esta cifra foi revisada para atender aos critérios oficiais da nossa Equipe de Qualidade.
tom: Eb
E|------------------------------------------------------|
B|------------------------------------------------------|
G|------------------------------8-----------------------|
D|-------3-------8------6-------8-------7-------10------|
A|-------3-------8------6-------6-------7-------10------|
E|-------1-------6------4---------------5-------8-------|


[Intro]

E|------------------------------------------|
B|------------------------------------------|
G|------------------------------------------|
D|--3-3------1---0-1----3-3------1-0-3-1----| repeat through verses
A|--3-3-----------------3-3-----------------|
E|--1-1----1---1--------1-1----1------------|


[Chorus]

E|---------------------------------------------------------------|
B|---------------------------------------------------------------|
G|------------------------8--8---------------------------8--8----|
D|--8--8--88----6--6-x-x--8--8-----8--8--88----6--6-x-x--8--8----| straight back to verse
A|--8--8--88----6--6-x-x--6--6-----8--8--88----6--6-x-x--6--6----|
E|--6--6--66----4--4-x-x-----------6--6--66----4--4-x-x----------|


[Bridge]

E|--------------------------------|
B|--------------------------------|
G|--------------------------------|
D|--3-33--7-77--888--10-101010----| repeat four times, then back to verse
A|--3-33--7-77--888--10-101010----|
E|--1-11--5-55--666--8| -8 8 8 ----|
Outros vídeos desta música
    4 exibições
      • ½ Tom
      • A
      • Bb
      • B
      • C
      • Db
      • D
      • Eb
      • E
      • F
      • F#
      • G
      • Ab
    • Adicionar à lista

    Afinação da cifra

    Afinador online

      0 comentários

      Ver todos os comentários

      Conseguiu tocar?

      0Tocaram0Ainda não

      Grave um vídeo tocando Tuesday Moon e nos envie!

      Toque também

      1. Imagem do artista The MicrophonesI Felt Your Shape The Microphones
      2. Imagem do artista Jeff MangumI Love How You Love Me Jeff Mangum
      3. Imagem do artista Andrew Jackson JihadPeople II: The Reckoning Andrew Jackson Jihad
      4. Imagem do artista Animal CollectiveHounds Of Bairro Animal Collective

      Entre para o Cifra Club PRO

      Tenha acesso a benefícios exclusivos no App e no Site

      • Chega de anúncios

      • Badges exclusivas

      • Mais recursos no app do Afinador

      • Atendimento Prioritário

      • Aumente seu limite de lista

      • Ajude a produzir mais conteúdo

      Cifra Club Pro

      Aproveite o Cifra Club com benefícios exclusivos e sem anúncios
      Cifra Club Pro
      Aproveite o Cifra Club com benefícios exclusivos e sem anúncios
      Ops (: Contenido disponible sólo en portugués.
      OK