Cifra Club

Time Of No Reply

Nick Drake

Cifra: Principal (violão e guitarra)
Selo Cifra Club: esta cifra foi revisada para atender aos critérios oficiais da nossa Equipe de Qualidade.
tom: Em
E|-----0--|-----0--|---5----|-----12*|
B|---0--0-|---7--7-|----5---|---0-12*|
G|--0-0---|--9-9--0|--5--5--|--0-----|
D|-9-----9|-7------|-5----5-|-0------|
A|7-------| 6-------|5------5|0-------|
E|--------|--------|--------|--------|
                          

Verse:

E|------0-|--------| |------0-|------0-|--------|--------|
B|---0----|---0----| |---0----|---0----|---0---0|---5---0|
G|--0-----|--0-2---| x2 |--0-----|--0-----|--0---9-|--5---0-|
D|-9---7-7|-5---0--| |-A---9-9|-A---9--|-9---7--|-5---0--|
A|7---5---| 4---2---|    |9---7---|9---7---|7---6---|5---0---|
E|--------|------0-| |--------|--------|--------|--------|
                        (For A read 10)

Riff:

E|-----0--|-----0--|---5----|-----12*|
B|---0--0-|---7--7-|----5---|---0-12*|
G|--0-0---|--9-9--0|--5--5--|--0-----|
D|-9-----9|-7------|-5----5-|-0------|
A|7-------| 6-------|5------5|0-------|
E|--------|--------|--------|--------|
                          

Bridge bit:

E|--------|-----0--| |--------|--------|
B|---0----|---0--0-| |---0----|---0----|
G|--0-0---|--0-0---| x3 |--0-0---|--0-2---|
D|-5---5-5|-3-----3| |-1---1-1|-0------|
A|7--7--7-| 5--5--5-|    |3--3--3-|2-------|
E|--------|--------| |--------|----0---|

Verse:

E|------0-|--------| |------0-|------0-|--------|--------|
B|---0----|---0----| |---0----|---0----|---0---0|---5---0|
G|--0-----|--0-2---| x2 |--0-----|--0-----|--0---9-|--5---0-|
D|-9---7-7|-5---0--| |-A---9-9|-A---9--|-9---7--|-5---0--|
A|7---5---| 4---2---|    |9---7---|9---7---|7---6---|5---0---|
E|--------|------0-| |--------|--------|--------|--------|
                        (For A read 10)

Little link:

E|--------|--------|
B|---0---7|---5--0-|
G|--0---9-|--5---0-|
D|-9---7--|-5---0--|
A|7---6---| 5---0---|
E|--------|--------|

Verse:

E|------0-|--------| |------0-|------0-|--------|--------|
B|---0----|---0----| |---0----|---0----|---0---0|---5---0|
G|--0-----|--0-2---| x2 |--0-----|--0-----|--0---9-|--5---0-|
D|-9---7-7|-5---0--| |-A---9-9|-A---9--|-9---7--|-5---0--|
A|7---5---| 4---2---|    |9---7---|9---7---|7---6---|5---0---|
E|--------|------0-| |--------|--------|--------|--------|
                        (For A read 10)

Little link:

E|--------|--------|
B|---0---7|---5--0-|
G|--0---9-|--5---0-|
D|-9---7--|-5---0--|
A|7---6---| 5---0---|
E|--------|--------|

Bridge bit:

E|--------|-----0--| |--------|--------|
B|---0----|---0--0-| |---0----|---0----|
G|--0-0---|--0-0---| x3 |--0-0---|--0-2---|
D|-5---5-5|-3-----3| |-1---1-1|-0------|
A|7--7--7-| 5--5--5-|    |3--3--3-|2-------|
E|--------|--------| |--------|----0---|


Verse:

E|------0-|--------| |------0-|------0-|--------|--------|
B|---0----|---0----| |---0----|---0----|---0---0|---5---0|
G|--0-----|--0-2---| x2 |--0-----|--0-----|--0---9-|--5---0-|
D|-9---7-7|-5---0--| |-A---9-9|-A---9--|-9---7--|-5---0--|
A|7---5---| 4---2---|    |9---7---|9---7---|7---6---|5---0---|
E|--------|------0-| |--------|--------|--------|--------|
                        (For A read 10)


Riff:

E|-----0--|-----0--|---5----|-----12*|
B|---0--0-|---7--7-|----5---|---0-12*|
G|--0-0---|--9-9--0|--5--5--|--0-----|
D|-9-----9|-7------|-5----5-|-0------|
A|7-------| 6-------|5------5|0-------|
E|--------|--------|--------|--------|
Outros vídeos desta música
    45 exibições
      • ½ Tom
      • Am
      • Bbm
      • Bm
      • Cm
      • C#m
      • Dm
      • Ebm
      • Em
      • Fm
      • F#m
      • Gm
      • G#m
    • Adicionar à lista

    Afinação da cifra

    Afinador online

      0 comentários

      Ver todos os comentários

      Entre para o Cifra Club PRO

      Tenha acesso a benefícios exclusivos no App e no Site

      • Chega de anúncios

      • Badges exclusivas

      • Mais recursos no app do Afinador

      • Atendimento Prioritário

      • Aumente seu limite de lista

      • Ajude a produzir mais conteúdo

      Cifra Club Pro

      Aproveite o Cifra Club com benefícios exclusivos e sem anúncios
      Cifra Club Pro
      Aproveite o Cifra Club com benefícios exclusivos e sem anúncios
      Ops (: Contenido disponible sólo en portugués.
      OK