Cifra Club

Aquela Canção

Nilton César

Cifra: Principal (violão e guitarra)
Selo Cifra Club: esta cifra foi revisada para atender aos critérios oficiais da nossa Equipe de Qualidade.
tom: E
[Intro] E  C#m  A  B  E  C#m  A  B 

E|-------------11----------------------|
B|---------12------14------------------|
G|9-11-13-------------13/--------------|
D|-------------------------------------|
A|-------------------------------------|
E|-------------------------------------|

E|-------9--9--7-----------------------|
B|----------------7/-------------------|
G|6-8-9--------------------------------|
D|-------------------------------------|
A|-------------------------------------|
E|-------------------------------------|

    E                 C#m 
 Aquela canção me lembrou você
    A                 B 
 Eu te convidava pra ver matinê
    E              C#m 
 E você dengosa dizendo que sim
       A                 B 
 Me olhava nos olhos sorrido pra mim
     E               E+
 Corria pra casa pra me arrumar
     A                  Am 
 Sonhando provar o teu beijo
    E                E+ 
 Ficava esperando a hora chegar
     A                 B
 Morrendo de amor e desejo
    C#m                   G#m
 O filme era triste sem ter você
       A                     E   G#7
 E eu nunca ficava em teus braços
    C#m                  G#m 
 Aquela canção me fez perceber
   A                    B 
 Você vive em tudo que faço

[Solo] E  C#m  A  B  E  C#m  A  B

E|-------------11---------------------------|
B|---------12------14-----------------------|
G|9-11-13-------------13/-------------------|
D|------------------------------------------|
A|------------------------------------------|
E|------------------------------------------|

E|-------9--9--7----------------------------|
B|----------------7/------------------------|
G|6-8-9-------------------------------------|
D|------------------------------------------|
A|------------------------------------------|
E|------------------------------------------|

    E                  C#m 
 Aquela canção me fez recordar
    A                 B 
 Eu te convidava pra gente dançar
   E                 C#m   
 Você outra vez me dizia que sim
    A              B 
 Jurava que ia sorrindo pra mim
    E                 E+ 
 Fazia mil planos na minha ilusão
     A               Am
 Querendo você para sempre
   E                   E+ 
 Você deixou marcas no meu coração
     A               B 
 Preciso te ver novamente
     C#m                 G#m 
 No baile você nunca apareceu
    A                    E  G#7
 E tudo pra nós não deu certo
    C#m                  G#m 
 Aquela canção me fez perceber
     A                 B 
 Preciso ter você por perto

[Solo] E  C#m  A  B  E  C#m  A  B 

E|-------------11---------------------------|
B|---------12------14-----------------------|
G|9-11-13-------------13/-------------------|
D|------------------------------------------|
A|------------------------------------------|
E|------------------------------------------|

E|-------9--9--7----------------------------|
B|----------------7/------------------------|
G|6-8-9-------------------------------------|
D|------------------------------------------|
A|------------------------------------------|
E|------------------------------------------|

E                   C#m 
  Aquela canção me fez recordar
    A                 B 
 Eu te convidava pra gente dançar
   E                 C#m   
 Você outra vez me dizia que sim
    A              B 
 Jurava que ia sorrindo pra mim
    E                 E+ 
 Fazia mil planos na minha ilusão
     A               Am
 Querendo você para sempre
   E                   E+ 
 Você deixou marcas no meu coração
     A               B 
 Preciso te ver novamente
     C#m                 G#m 
 No baile você nunca apareceu
    A                    E    G#7
 E tudo pra nós não deu certo
    C#m                  G#m 
 Aquela canção me fez perceber
     A                 B 
 Preciso ter você por perto

    E                C#m 
 Aquele beijo que te dei
  A                        B 
 Nunca, nunca mais esquecerei
    E                C#m 
 Aquele beijo que te dei
  A                        B 
 Nunca, nunca mais esquecerei
Outros vídeos desta música
    11.344 exibições
      • ½ Tom
      • A
      • Bb
      • B
      • C
      • Db
      • D
      • Eb
      • E
      • F
      • F#
      • G
      • Ab
    • Adicionar à lista

    Afinação da cifra

    Afinador online

      0 comentários

      Ver todos os comentários

      Entre para o Cifra Club PRO

      Tenha acesso a benefícios exclusivos no App e no Site

      • Chega de anúncios

      • Badges exclusivas

      • Mais recursos no app do Afinador

      • Atendimento Prioritário

      • Aumente seu limite de lista

      • Ajude a produzir mais conteúdo

      Cifra Club Pro

      Aproveite o Cifra Club com benefícios exclusivos e sem anúncios
      Cifra Club Pro
      Aproveite o Cifra Club com benefícios exclusivos e sem anúncios
      OK