Cifra Club

Aprenda

O Melhor Lugar do Mundo

Novo Tom

Cifra: Principal (violão e guitarra)
tom: E
[Intro]  B A C#m D A E
       (B A C#m D A B)
       (E A E A E)

Intro:
E|--16-14-12-14-14-16-17-17-17-16-16-14-12-12h13-14-14-14-14-12-12--------------|
B|-----------------------------------------------------------------14-12-10-12--|
G|------------------------------------------------------------------------------|
D|------------------------------------------------------------------------------|
A|------------------------------------------------------------------------------|
E|------------------------------------------------------------------------------|

E|-16-14-12-14-14-16-17-17-17-16-16-14-12-12h13-14-14-14-14-12-9-12-14-14-16-12----9----9-----------|
B|------------------------------------------------------------------------------12---12---12--------|
G|--------------------------------------------------------------------------------------------------|
D|--------------------------------------------------------------------------------------------------|
A|--------------------------------------------------------------------------------------------------|
E|--------------------------------------------------------------------------------------------------|

E     B         C#m
No mundo ainda existem belezas
 A       B            E   A/E E
que alegram a vida e nos fazem sonhar.
      B         C#m   A
Recantos felizes da natureza,
            E          B
onde qualquer ser humano gostaria de estar.

E    B/D#     C#m    B
Mas de todos os lugares
A      B         E  F#m   E/G#
o mais bonito e inspirador
A    B   C#m      A  F#m           B       E  B/D#
É onde fico   em oração     junto aos pés do Salvador

  C#m          A     B       E  B/D#
O melhor lugar do mundo é aos pés do Salvador,
  C#m         A      B           E
É ali onde a esperança trás alívio ao sofredor.
  F#m          B        E     A
É ali onde eu me encontro com a fonte do amor.
   B        E/G#   A    B        E  E/G#    A
O melhor lugar do mundo    é aos pés do Salvador!

E      B           C#m
sonhamos com casas que tenham conforto,
 A        B           E  A/E  E
talvez numa encosta com vista pro mar
      B            C#m   A           E          B
Mas as maravilhas não fazem sentido  se Cristo não está em primeiro lugar


E    B/D#       C#m   B  A        B        E  F#m    E/G#
Ao sentir a paz de Deus,      o seu poder e amor profundo
A      B  C#m         A  F#m          B   C#m
Eu posso estar      onde for,    estou feliz
        A     B        E     B/D#
por me encontrar no melhor lugar do mundo

  C#m          A     B       E  B/D#
O melhor lugar do mundo é aos pés do Salvador,
  C#m          A      B          E
É ali onde a esperança trás alívio ao sofredor.
  F#m          B        E     A
É ali onde eu me encontro com a fonte do amor.
   B        E/G#   A    B        E
O melhor lugar do mundo    é aos pés do Salvador!

  F#m          B        E     A
É ali onde eu me encontro com a fonte do amor.
   B        E/G#   A    B        E  A/E   E
O melhor lugar do mundo    é aos pés do Salvador!
Composição de LINEU SOARES / Valdecir Lima
173.613 exibições
    • ½ Tom
    • A
    • Bb
    • B
    • C
    • Db
    • D
    • Eb
    • E
    • F
    • F#
    • G
    • Ab
  • Adicionar à lista

    0 comentários

    Ver todos os comentários
    00:00 / 00:00
    Outros vídeos desta música
    Repetir Qualidade Automático
    Outros vídeos desta música
    00:00 / 00:00
    Automático

    Cifra Club Pro

    Aproveite o Cifra Club com benefícios exclusivos e sem anúncios
    Cifra Club Pro
    Aproveite o Cifra Club com benefícios exclusivos e sem anúncios
    OK