Cifra Club

Não Vou Dar Pra Trás

O Segredo Dos Animais

Cifra: Principal (violão e guitarra)
Selo Cifra Club: esta cifra foi revisada para atender aos critérios oficiais da nossa Equipe de Qualidade.
tom: A
[Intro] A  A5  D9

E|----------------------------------------------------------|
B|---------------2---2--3---------------------2---2--3------|
G|---------------2-2-2--2---------------------2-2-2--2------|
D|---------------2-2-2------------------------2-2-2---------|
A|---------3~-0-------------------------3~-0----------------|
E|----0--3-------------------------0--3---------------------|

E|----------------------------------------------------------|
B|---------------2-0-2-0-2/3------------------2-0-2-0-2/3---|
G|----------------------------------------------------------|
D|----------------------------------------------------------|
A|---------3~-0-------------------------3~-0----------------|
E|----0--3-------------------------0--3---------------------|

    F#m  E   A
Não vou dar pra trás
    F#m  E   A
Não vou dar pra trás
       F#m        E         D
Podem me enfrentar em qualquer lugar
    F#m  E   A
Não vou dar pra trás
      F#m  E  A
Vou ficar de pé
        F#m  E  A
Sem dar marcha ré
      F#m    E      D
Se preciso for remarei contra a maré
      F#m  E   A
Pra ficar de pé
    F#m    E   A
Não vou dar pra trás
D     E   D                   E
Hmm baby,não é tão fácil ter paz
D      E
Maaas eu
  F#m  E  A
Eu sou capaz
    F#m  E   A
Não vou dar pra trás

E|----------------------------------------------------------|
B|---------------2---2--3---------------------2---2--3------|
G|---------------2-2-2--2---------------------2-2-2--2------|
D|---------------2-2-2------------------------2-2-2---------|
A|---------3~-0-------------------------3~-0----------------|
E|----0--3-------------------------0--3---------------------|

E|----------------------------------------------------------|
B|---------------2-0-2-0-2/3------------------2-0-2-0-2/3---|
G|----------------------------------------------------------|
D|----------------------------------------------------------|
A|---------3~-0-------------------------3~-0----------------|
E|----0--3-------------------------0--3---------------------|

        F#m   E   A
O que é certo eu sei
       F#m  E  A
Essa é minha lei
      F#m      E    D
Nesse mundo a covardia é demais
      F#m  E   A
Mas eu sou capaz
    F#m    E   A
Não vou dar pra trás
D        E
Hey baby
D                    E
Não é tão fácil ter paz
D   E  F#m  E  A
Mas eu sou capaz
    F#m  E   A
Não vou dar pra trás
    F#m  E   A
Não vou dar pra trás
Outros vídeos desta música
227.538 exibições
    • ½ Tom
    • A
    • Bb
    • B
    • C
    • Db
    • D
    • Eb
    • E
    • F
    • F#
    • G
    • Ab
  • Adicionar à lista

Afinação da cifra

Afinador online

    0 comentários

    Ver todos os comentários

    Entre para o Cifra Club PRO

    Tenha acesso a benefícios exclusivos no App e no Site

    • Chega de anúncios

    • Mais recursos no app do Afinador

    • Atendimento Prioritário

    • Aumente seu limite de lista

    • Ajude a produzir mais conteúdo

    Cifra Club Pro

    Aproveite o Cifra Club com benefícios exclusivos e sem anúncios
    Cifra Club Pro
    Aproveite o Cifra Club com benefícios exclusivos e sem anúncios
    OK