Cifra Club

O Milionário

Os Incríveis

Cifra: Principal
exibições 235.292
Tom: G
Intro: G,Am,D,G,D 
Base: G,Am,D,G,D 

1º RIFF
E|------------------------------------------3----------3------------| 
B|---------------------------3--3----5---------5--------5--4--5~~~~-| 
G|---0------2--2----4-----------------------------------------------| 
D|------------------------------------------------------------------| 
A|------------------------------------------------------------------| 
E|------------------------------------------------------------------|

E|---5-5---7---5-----7----5-----7-5-7-5---3------------------------| 
B|--------------------------------------------5----3~~~------------| 
G|-----------------------------------------------------------------| 
D|-----------------------------------------------------------------| 
A|-----------------------------------------------------------------| 
E|-----------------------------------------------------------------|

E|------------------------------------------3--------3--------------| 
B|---------------------------3--3------5-------5--------5--4--5~~~~-| 
G|---0------2--2----4-----------------------------------------------| 
D|------------------------------------------------------------------| 
A|------------------------------------------------------------------| 
E|------------------------------------------------------------------|

E|---5-5---7---5-----7----5-----7-5-7-5---3---------------------------| 
B|----------------------------------------------5----3~~~~------------| 
G|--------------------------------------------------------------------| 
D|--------------------------------------------------------------------| 
A|--------------------------------------------------------------------| 
E|--------------------------------------------------------------------|

                             
2º RIFF           * 2 VEZES SEGUIDAS *   - alteração a partir daqui
                              
E|--------7---10---|--08-10-08-10---7--5--|------17----------------| 
B|----8---8---12---|--10-12-10-12---8--5--|--5/17--19--------------| 
G|----7------------|-------------------5--|------------------------| 
D|-----------------|----------------------|------------------------| 
A|-----------------|----------------------|------------------------|
E|-----------------|----------------------|------------------------|
 
                             
  
E|--14--12--14--14--|--12--14--14--|--15--14--14--12--10~----08--07~~---------|
B|--15--13--15--15--|--13--15--15--|--17--15--15--14--12~----10--08~~---------|
G|------------------|--------------|------------------------------------------|
D|------------------|--------------|------------------------------------------|
A|------------------|--------------|------------------------------------------|
E|------------------|--------------|------------------------------------------| 


               
E|-------------------------------------------------------~---------15--17--15--12--11--10-| 
B|--7h9-7h9-7h9-7h9-7h9-7h9-7h9-7h9-7h9-7h9--10-10-10--9-9-9--8~--------------------------/ 
G|----------------------------------------------------------------------------------------| 
D|----------------------------------------------------------------------------------------| 
A|----------------------------------------------------------------------------------------| 
E|----------------------------------------------------------------------------------------|

                                                         OBS\: neste ultimo *10 arrastar
                                                          a nota até o final do braço
E|---------------------------------------------------------------------| 
B|--7h9-7h9-7h9-7h9-7h9-7h9-7h9-7h9-7h9-7h9--10-10-10--9-9-9--8~-------| 
G|---------------------------------------------------------------------| 
D|---------------------------------------------------------------------| 
A|---------------------------------------------------------------------| 
E|---------------------------------------------------------------------|
 

* FAZER ESTA PRÓXIMA PARTE ABAFANDO AS CORDAS *

E|-------------------------------------12-12----15-15-----12-12-----15-15----12-12-12-12-12-12-12-12-| 
B|-------------------12-12----15-15------------------------------------------------------------------| 
G|--12-12----14-14-----------------------------------------------------------------------------------| 
D|---------------------------------------------------------------------------------------------------| 
A|---------------------------------------------------------------------------------------------------| 
E|---------------------------------------------------------------------------------------------------|

E|--17-17-17--19--17-17-17--19---17-17-17---19-17-19-17-17---15-15-15---17-17---10-10-10-------------|
B|---------------------------------------------------------------------------------------------------| 
G|---------------------------------------------------------------------------------------------------|
D|---------------------------------------------------------------------------------------------------| 
A|---------------------------------------------------------------------------------------------------|
E|---------------------------------------------------------------------------------------------------| 

E|-------------------------------------12-12----15-15-----12-12-----15-15----12-12-12-12-12-12-12-12-| 
B|-------------------12-12----15-15------------------------------------------------------------------| 
G|--12-12----14-14-----------------------------------------------------------------------------------| 
D|---------------------------------------------------------------------------------------------------| 
A|---------------------------------------------------------------------------------------------------| 
E|---------------------------------------------------------------------------------------------------|

E|--17-17-17--19--17-17-17--19---17-17-17---19-17-19-17-17---15-15-15---17-17---10-10-10-------------|
B|---------------------------------------------------------------------------------------------------| 
G|---------------------------------------------------------------------------------------------------|
D|---------------------------------------------------------------------------------------------------| 
A|---------------------------------------------------------------------------------------------------|
E|---------------------------------------------------------------------------------------------------| 

                         2X REPETIR 
2º RIFF           * 2 VEZES SEGUIDAS *   - alteração a partir daqui
                              
E|--------7---10---|--08-10-08-10---7--5--|------17----------------| 
B|----8---8---12---|--10-12-10-12---8--5--|--5/17--19--------------| 
G|----7------------|-------------------5--|------------------------| 
D|-----------------|----------------------|------------------------| 
A|-----------------|----------------------|------------------------|
E|-----------------|----------------------|------------------------|
 
                             
  
E|--14--12--14--14--|--12--14--14--|--15--14--14--12--10~----08--07~~---------|
B|--15--13--15--15--|--13--15--15--|--17--15--15--14--12~----10--08~~---------|
G|------------------|--------------|------------------------------------------|
D|------------------|--------------|------------------------------------------|
A|------------------|--------------|------------------------------------------|
E|------------------|--------------|------------------------------------------| 


               
E|-------------------------------------------------------~---------15--17--15--12--11--10-| 
B|--7h9-7h9-7h9-7h9-7h9-7h9-7h9-7h9-7h9-7h9--10-10-10--9-9-9--8~--------------------------/ 
G|----------------------------------------------------------------------------------------| 
D|----------------------------------------------------------------------------------------| 
A|----------------------------------------------------------------------------------------| 
E|----------------------------------------------------------------------------------------|

                                                         OBS\: neste ultimo *10 arrastar
                                                          a nota até o final do braço
E|---------------------------------------------------------------------| 
B|--7h9-7h9-7h9-7h9-7h9-7h9-7h9-7h9-7h9-7h9--10-10-10--9-9-9--8~-------| 
G|---------------------------------------------------------------------| 
D|---------------------------------------------------------------------| 
A|---------------------------------------------------------------------| 
E|---------------------------------------------------------------------|

* FAZER ESTA PRÓXIMA PARTE ABAFANDO AS CORDAS *

E|-------------------------------------12-12----15-15-----12-12-----15-15----12-12-12-12-12-12-12-12-| 
B|-------------------12-12----15-15------------------------------------------------------------------| 
G|--12-12----14-14-----------------------------------------------------------------------------------| 
D|---------------------------------------------------------------------------------------------------| 
A|---------------------------------------------------------------------------------------------------| 
E|---------------------------------------------------------------------------------------------------|

E|--17-17-17--19--17-17-17--19---17-17-17---19-17-19-17-17---15-15-15---17-17---10-10-10-------------|
B|---------------------------------------------------------------------------------------------------| 
G|---------------------------------------------------------------------------------------------------|
D|---------------------------------------------------------------------------------------------------| 
A|---------------------------------------------------------------------------------------------------|
E|---------------------------------------------------------------------------------------------------| 

E|------------------------------------------3----------3------------| 
B|---------------------------3--3----5---------5--------5--4--5~~~~-| 
G|---0------2--2----4-----------------------------------------------| 
D|--------------------------------------------------------------------| 
A|--------------------------------------------------------------------| 
E|--------------------------------------------------------------------|

E|---5-5---7---5-----7----5-----7-5-7-5---7-----5-4-----------------| 
B|---------------------------------------------------------------| 
G|--------------------------------------------------------------------| 
D|--------------------------------------------------------------------| 
A|--------------------------------------------------------------------| 
E|--------------------------------------------------------------------|

E|---5-7-5-7-5----3-4-5----7-5-7-5--4-3-------------------------------| 
B|----------------------------------------7-6-5-4---------------------| 
G|--------------------------------------------------------------------| 
D|--------------------------------------------------------------------| 
A|--------------------------------------------------------------------| 
E|--------------------------------------------------------------------|

E|---5-7-5-7-5----3-4-5----7-5-7-5--4-3-------------------------------| 
B|----------------------------------------7-6-5-4---------------------| 
G|--------------------------------------------------------------------| 
D|--------------------------------------------------------------------| 
A|--------------------------------------------------------------------| 
E|--------------------------------------------------------------------|

E|--5-7-5-7-5----3-4-5----7-5-7-5--4-3-----4--3--2--1--2--------------| 
B|-----------------------------------------4--3--2--1--2--------------| 
G|--------------------------------------------------------------------| 
D|--------------------------------------------------------------------| 
A|--------------------------------------------------------------------| 
E|--------------------------------------------------------------------|
Acordes para:
    Colaboração e revisão:
    • Tiago Colucci
    • Rafael freire
    • Gilberto Paula

    0 comentários

      mostrar mais comentários

      Conseguiu tocar?

      27tocaram2ainda não

      Grave um vídeo tocando O Milionário e mande pra gente!

      00:00 / 00:00
      outros vídeos desta música
      repetirqualidadeautomática
      Outro vídeos desta música
        00:00 / 00:00
        automática
        OK