Cifra Club

Aprenda

Tu Mandas No Meu Coração

Os Travessos

Cifra: Principal (violão e guitarra)
tom: G
[Intro] G7+  D/F#  Bm5-/7  E  E7  Eb7+  Bb7+  Am4/7  D4/7/9

E|----------------------------------------------------|
B|-----------------------------------------5--3-------|
G|-4-5-4-5-4------5-4-5-7----4-5-4-5-4--5-------------|
D|----------------------------------------------------|
A|----------------------------------------------------|
E|----------------------------------------------------|

E|----------------------------------------------------|
B|-3-4-3-4-3-----------3-1-0-0-1-3-----3--------------|
G|-----------3-2-------------------2------------------|
D|---------------3------------------------------------|
A|----------------------------------------------------|
E|----------------------------------------------------|

G9                 G5+/9           G6/9
   Não sei quanto tempo o tempo deixou 
             G5+/9              G9
De achar um tempo para o nosso amor 
             G5+/9                 G6/9
Quem de nos fugiu e nunca se encontrou 
           G4/7/9    G4/7/9-  C9
A fúria do tempo não nos perdoou  


                          F4/7/9
Nosso passatempo foi só recordar 
                              Bm7
Que existia tempo pra gente sonhar 
               E7             Eb7+
Mas lá fora o tempo agora se fechou 
             D7/13  D4/7/9    G9
Será que o tempo da gente acabou


          G5+/9           G6/9
 Minha companheira é a solidão  
               G5+/9         G9
Me encontro perdido na escuridão 
          G5+/9               G6/9
Você me jurou que entre eu e você 
             G4/7/9  G4/7/9-  C9
Não valia brincar de se esconder  

                              F4/7/9
Olho em minha volta e você não está 
                               Bm7
Se for brincadeira melhor nem brincar

       E7              Am7/9
Você pediu pra dar um tempo 
   Cm7             Bm7
E eu não quis acreditar 
         Em7           A7/9
Será que nem por um momento 
     Cm7         G7+
Você pode me escutar 
           E7        Am7/9
Se ainda existe sentimento 
      Cm7              Bm7
Não brinca assim comigo não 
           Em7          Am7/9
Você bem sabe que aqui dentro 
    Cm7               Eb7+ Bb7+ Am4/7 D4/7/9
Tu mandas no meu coração
Composição de Prateado / Salgadinho
Colaboração e revisão:
  • Akael
  • Rafael Nascimento
  • Júlio Cézar
20.957 exibições
    • ½ Tom
    • A
    • Bb
    • B
    • C
    • Db
    • D
    • Eb
    • E
    • F
    • F#
    • G
    • Ab
  • Adicionar à lista

    0 comentários

    Ver todos os comentários

    Conseguiu tocar?

    4 Tocaram 0 Ainda não

    Grave um vídeo tocando Tu Mandas No Meu Coração e nos envie!

    00:00 / 00:00
    Outros vídeos desta música
    Repetir Qualidade Automático
    Outros vídeos desta música
    00:00 / 00:00
    Automático

    Cifra Club Pro

    Aproveite o Cifra Club com benefícios exclusivos e sem anúncios
    Cifra Club Pro
    Aproveite o Cifra Club com benefícios exclusivos e sem anúncios
    OK