Cifra Club

Fala a Verdade Pra Ele

Pablo

Cifra: Principal (violão e guitarra)
Selo Cifra Club: esta cifra foi revisada para atender aos critérios oficiais da nossa Equipe de Qualidade.
tom: A
INTRO: Bm F#m D Bm F#m D

Solo Da Intro:

Parte 1 de 5 
E|-------------------------------------------------|
B|-7-9-10\-------------------------7---7-10/12-10--|
G|----------7-7-6-6h7----6-7-9-7-9---9-------------|
D|---------------------9---------------------------|
A|-------------------------------------------------|
E|-------------------------------------------------|

Parte 2 de 5

E|-------------------------------------------------|
B|-7-9-10\-----------------5---5-7-5-7-10/12-10----|
G|---------6-6-4-4h6---4-6---6---------------------|
D|-------------------7-----------------------------|
A|-------------------------------------------------|
E|-------------------------------------------------|

Parte 3 de 5

E|-------------------------------------------------|
B|-10p9------------12------------------------------|
G|-9----11-9-11/13----13\11-9----------------------|
D|-------------------------------------------------|
A|-------------------------------------------------|
E|-------------------------------------------------|

Parte 4 de 5

E|-------------------------------------------------|
B|-9h10-9------------------------------------------|
G|--------11-9-7-6---------------------------------|
D|-----------------9-7-6h7-6-----------------------|
A|-------------------------------------------------|
E|-------------------------------------------------|

Parte 5 de 5

E|-------------------------------------------------|
B|-------------------------------------------------|
G|-------------------------------------------------|
D|-7p6---------------------------------------------|
A|-----9-7-7/9-------------------------------------|
E|-------------------------------------------------|

F#m
No telefone você tem coragem de dizer
Bm
Que não me ama e que por mim não sente mais prazer
E                                     A
Mas ao vivo você sabe que é bem diferente
           E                  F#m
A sua voz trava, o seu corpo treme

                          Bm
Você tá com ele pra fazer ciúmes
                                E
Tá sentindo falta até do meu perfume
                                  A
Vejo nos seus olhos que ainda me ama
            E              F#m
Mandou ele usar Dolce&Gabanna
                Bm
Pra lembrar de mim
 D               E
Pra lembrar de mim
                   Bm
Fala a verdade pra ele
            
Que tá com ele pra me esquecer
         F#m
Fala pra ele
Que é por mim que você tem prazer
E
Resolve de uma vez essa indecisão
D                C#7              F#m
Para de ficar mentindo pro seu coração
Outros vídeos desta música
    61.796 exibições
      • ½ Tom
      • A
      • Bb
      • B
      • C
      • Db
      • D
      • Eb
      • E
      • F
      • F#
      • G
      • Ab
    • Adicionar à lista

    Afinação da cifra

    Afinador online

      0 comentários

      Ver todos os comentários

      Entre para o Cifra Club PRO

      Tenha acesso a benefícios exclusivos no App e no Site

      • Chega de anúncios

      • Badges exclusivas

      • Mais recursos no app do Afinador

      • Atendimento Prioritário

      • Aumente seu limite de lista

      • Ajude a produzir mais conteúdo

      Cifra Club Pro

      Aproveite o Cifra Club com benefícios exclusivos e sem anúncios
      Cifra Club Pro
      Aproveite o Cifra Club com benefícios exclusivos e sem anúncios
      Ops (: Contenido disponible sólo en portugués.
      OK