Cifra Club

Imprevistos

Pablo

Cifra: Principal (violão e guitarra)
Selo Cifra Club: esta cifra foi revisada para atender aos critérios oficiais da nossa Equipe de Qualidade.
tom: F
[Solo Intro <B>AB>  <B>DmB>  <B>FB>  <B>BbB>]
 A  Bb  Dm  F/C
 Bb  A  Dm

[Tab - Solo Intro]

E|----------------------------------------------------|
B|--------------6-------8h10p8---6--------------------|
G|---------7-9-----------------------------6h7p6------|
D|----5/7----------5~----------------8~---------------|
A|----------------------------------------------------|
E|----------------------------------------------------|

E|----------------------------------------------------|
B|-------------------------6-------8h10p8---6---------|
G|--------------------7-9-----------------------------|
D|---7h8-p7~-----5/7----------5~----------------8~----|
A|----------------------------------------------------|
E|----------------------------------------------------|

E|----------------------------------------------------|
B|----------------------------------------------------|
G|---6h7p6----9----7-------7--9--10--7----------------|
D|----------------------------------------------------|
A|----------------------------------------------------|
E|----------------------------------------------------|

Dm                 F/C           Bb
Mais um fim de semana, os bares lotados
C               Dm
E eu tentando ligar
                       F/C              Bb
Os meus amigos ligando, e eu aqui te esperando
C             F
E você onde está?
         Gm            Bb           C
Eu tenho aqui na minha frente o seu rosto
          F/C            C       Dm
Vejo a tua boca mas não posso te beijar
    Gm                A
Teu olhar fixamente me vigia
           Dm     C6 D
De uma fotografia

       Gm                       C
Eu coloquei a melhor roupa pra te ver
     F             C6                 Dm
Mudei meu corte de cabelo pra te impressionar
         Gm                        A
Mas já saquei que nesta noite vai chover
A7          Dm   D7
Bem no meu olhar
               Gm                      C
Só preciso de um olá, ou alô, ou coisa assim
                     F C                    Dm
Porque assim eu vou saber o que eu tô fazendo aqui
                 Gm                       A
Imprevistos acontecem, meu coração não te esquece
A7                   Dm   D7
Faça o seu lembrar de mim

       Gm                       C
Eu coloquei a melhor roupa pra te ver
     F             C6                 Dm
Mudei meu corte de cabelo pra te impressionar
         Gm                        A
Mas já saquei que nesta noite vai chover
A7          Dm   D7
Bem no meu olhar
               Gm                      C
Só preciso de um olá, ou alô, ou coisa assim
                     F C                    Dm
Porque assim eu vou saber o que eu tô fazendo aqui
                 Gm                       A
Imprevistos acontecem, meu coração não te esquece
A7                   Dm
Faça o seu lembrar de mim
Outros vídeos desta música
    91.332 exibições
    • Simplificar cifra
      • ½ Tom
      • A
      • Bb
      • B
      • C
      • Db
      • D
      • Eb
      • E
      • F
      • F#
      • G
      • Ab
    • Adicionar à lista

    Afinação da cifra

    Afinador online

      0 comentários

      Ver todos os comentários

      Entre para o Cifra Club PRO

      Tenha acesso a benefícios exclusivos no App e no Site

      • Chega de anúncios

      • Badges exclusivas

      • Mais recursos no app do Afinador

      • Atendimento Prioritário

      • Aumente seu limite de lista

      • Ajude a produzir mais conteúdo

      Cifra Club Pro

      Aproveite o Cifra Club com benefícios exclusivos e sem anúncios
      Cifra Club Pro
      Aproveite o Cifra Club com benefícios exclusivos e sem anúncios
      Ops (: Contenido disponible sólo en portugués.
      OK