Cifra Club

Please Dont Touch My Birdie

Parokya Ni Edgar

Cifra: Principal (violão e guitarra)
Selo Cifra Club: esta cifra foi revisada para atender aos critérios oficiais da nossa Equipe de Qualidade.
tom: A
[Intro]
   A                  E                   F#m                  E
E|-------------0-------------------------------------------------4-----4h5-4-----|
B|-----2---3----------------------0---------------2-3-2h3-0--------5---------5---|
G|-------2---2----2-------1---2-----------------2------------------------------4-|
D|---2----------------------2---2---2---------4----------------------------------|
A|-0--------------------2-------------------4------------------------------------|
E|--------------------0-------------------2--------------------0-----0-----------|
 
 
   D                 A                 F#m                E
E|---2-----2-----------0-----0---------------------------------0---|
B|-----3-----3---3-------2-----2---2-----------2-3-2h3-0------0----|
G|-------2-----2-----------2-----2-----------2---------------3-----|
D|-0---------------------------------------4----------------2------|
A|-------------------0-------------------4-----------------2-------|
E|-------------------------------------2------------------0--------|

[Verse]

A              E
 Kapag ako'y nababato
F#m         E
 Pinaglalaruan ko ang birdie ko
F#m              E
 Ang cute cute naman kasi
   D              E
 Kaya ko siya binili

A                E
 My birdie is my bestfriend
F#m                E
 Ang dami naming maliligayang sandali
F#m                    E
 Madalas ko siyang pinapakain ng birdseed
   D                      E
 Mahal kita o birdie ko, 'wag kang lalayo

[Chorus]

A               E
 Don't touch my birdie
F#m         E
 Resist temptation please
F#m                E
 You don't have to grab my birdie
D             E
 Just call it, and it will come

[Adlib]

A E F#m E F#m E D E

[Verse]

A                   E
 Ang birdie ko ay nakakatuwa
F#m                E
 Parang cobra na mahilig manuka
F#m                 E
 Kapag nilabas na mula sa kulungan
   D                 E
 Tuloy-tuloy na ang aming kasiyahan

A                 E
 Di naman ako madamot talaga
F#m                  E
 Ayaw ko lang na hinahawakan s'ya ng iba
F#m               E
 Ang birdie ko ay medyo masungit
 D                      E
 Konting hawak lang siguradong magagalit

[Chorus]

A               E
 Don't touch my birdie
F#m         E
 Resist temptation please
F#m                E
 You don't have to grab my birdie
D             E
 Just call it, and it will come

A E F#m E
  It will come

[Bridge]

D                  C#m
 Huwag ka sanang magalit sa akin
Bm                       A
 Tuwing ang birdie ko ay aking hihimasin
D            A
 Sana'y maunawaan mo
F#m
 Mahal na mahal ko ang birdie ko
   E
 Pati mga itlog nito

[Chorus]

A               E
 Don't touch my birdie
F#m         E
 Resist temptation please
F#m                E
 You don't have to grab my birdie
D             E
 Just call it, and it will come

A               E
 Don't touch my birdie
F#m         E
 Resist temptation please
F#m                E
 You don't have to grab my birdie
D             E
 Just call it, and it will come
Outros vídeos desta música
    0 exibições
      • ½ Tom
      • A
      • Bb
      • B
      • C
      • Db
      • D
      • Eb
      • E
      • F
      • F#
      • G
      • Ab
    • Adicionar à lista

    Afinação da cifra

    Afinador online

      0 comentários

      Ver todos os comentários

      Entre para o Cifra Club PRO

      Tenha acesso a benefícios exclusivos no App e no Site

      • Chega de anúncios

      • Badges exclusivas

      • Mais recursos no app do Afinador

      • Atendimento Prioritário

      • Aumente seu limite de lista

      • Ajude a produzir mais conteúdo

      Cifra Club Pro

      Aproveite o Cifra Club com benefícios exclusivos e sem anúncios
      Cifra Club Pro
      Aproveite o Cifra Club com benefícios exclusivos e sem anúncios
      OK