Cifra Club

Never Leave A Job Half Done

Pedro The Lion

Cifra: Principal (violão e guitarra)
Selo Cifra Club: esta cifra foi revisada para atender aos critérios oficiais da nossa Equipe de Qualidade.
tom: Ab
E|-----------------|-----------------|-----------------|-----------------|
B|-----------------|-----------------|-----------------|-----------------|
G|-----7-------7---|-----7-------7---|-----5-------5---|-----5-------5---| x2
D|-----------------|-----------------|-----------------|-----------------|
A|-6-6---6-6-6---6-|-6-6---6-6-6---6-|-6-6---6-6-6---6-|-6-6---6-6-6---6-|
E|-----------------|-----------------|-----------------|-----------------|

Repeat intro riff x4 for Verse

[Riff 2] (0:39)

E|-----------------|-----------------|-----------------|-----------------|
B|-----------------|-----------------|-----------------|-----------------|
G|-----------------|-----------------|-----------------|-----------------|
D|-5-5-5-5-5-\-1---|-6-6-6-6-5-5-5-5-|-5-5-5-5-5-\-1---|-6-6-6-6-5-5-5-5-|
A|-----------------|-----------------|-----------------|-----------------|
E|-----------------|-----------------|-----------------|-----------------|

                                        2nd guitar strumming G# - 4665xx
E|-----------------|-----------------|-----------------|-----------------|
B|-----------------|-----------------|-----------------|-----------------|
G|-----------------|-----------------|-----------------|-----------------|
D|-----------------|-----------------|-----------------|-----------------|
Ab|-6-6-6-6-6-6-6-6-|-5-5-5-5-6-6-6-6-|-6-6-6-6-6-6-6-6-|-6-6-6-6-6-6-6-6-|
Eb|-----------------|-----------------|-----------------|-----------------|
Outros vídeos desta música
    10 exibições
      • ½ Tom
      • A
      • Bb
      • B
      • C
      • Db
      • D
      • Eb
      • E
      • F
      • F#
      • G
      • Ab
    • Adicionar à lista

    Afinação da cifra

    Afinador online

      0 comentários

      Ver todos os comentários

      Entre para o Cifra Club PRO

      Tenha acesso a benefícios exclusivos no App e no Site

      • Chega de anúncios

      • Badges exclusivas

      • Mais recursos no app do Afinador

      • Atendimento Prioritário

      • Aumente seu limite de lista

      • Ajude a produzir mais conteúdo

      Cifra Club Pro

      Aproveite o Cifra Club com benefícios exclusivos e sem anúncios
      Cifra Club Pro
      Aproveite o Cifra Club com benefícios exclusivos e sem anúncios
      OK