Cifra Club

Mi Credo

Pepe Aguilar

Cifra: Principal (violão e guitarra)
Selo Cifra Club: esta cifra foi revisada para atender aos critérios oficiais da nossa Equipe de Qualidade.
tom: C
INTRO

    C                 F                 C                 F
E|--0--1--3--3--1--0-------3-1-0-0--1-0-0--1--3--3--1--0-----|
B|--------------------1-----------------------------------1--|
G|-----------------------------------------------------------|
D|-----------------------------------------------------------|
A|--3-----------------------------------3--------------------|
E|-----------------------------------------------------------|

    C                   F          C                   F       G
E|--0--1--1s3--3--1--0-------------0--1--1s3--3--1--0-------------|
B|----------------------1------1-3---------------------1--3s5--3--|
G|---------------------------2------------------------------------|
D|----------------------------------------------------------------|
A|--3------------------------------3------------------------------|
E|----------------------------------------------------------------|



VERSO

C                 F
Por donde vayas iré

Dm        G           C
Con una venda en los ojos

Am                D
Lo que decidas haré

F                                G  (silencio)
El amor cuando es verdad es uno solo


E|--5-3----------------|
B|------5-3---3s5s3----|
G|----------4-------4--|
D|---------------------|
A|---------------------|
E|---------------------|


C                     F
No me preguntes por qué


Dm          G     C
He sido bueno contigo

     Am                   D
Solo sé que eres mi religión

          F                      G
Que no importa si lo llaman fanatismo



CORO

                     F
Sin ti yo no soy el mismo

          G               Em
Eres mi credo, pedazo de cielo

           Am
Abrázame fuerte

                     F
Mi trébol de buena suerte

            Dm
Prefiero morir junto a ti

      G
A no verte


E|------3-----0-----------|
B|----0---0---------------|
G|--3-------3-0-----------|
D|---------------0s2s0----|
A|---------------------3--|
E|------------------------|

    C                   F          C                   F       G
E|--0--1--1s3--3--1--0-------------0--1--1s3--3--1--0-------------|
B|----------------------1------1-3---------------------1--3s5--3--|
G|---------------------------2------------------------------------|
D|----------------------------------------------------------------|
A|--3------------------------------3------------------------------|
E|----------------------------------------------------------------|


C                     F
No me preguntes por qué


Dm          G     C
He sido bueno contigo

     Am                   D
Solo sé que eres mi religión

          F                      G
Que no importa si lo llaman fanatismo



CORO

                     F
Sin ti yo no soy el mismo

          G               Em
Eres mi credo, pedazo de cielo

           Am
Abrázame fuerte

                     F
Mi trébol de buena suerte

            Dm
Prefiero morir junto a ti

      G
A no verte

                     F
Sin ti yo no soy el mismo

          G               Em
Eres mi credo, pedazo de cielo

           Am
Abrázame fuerte

                     F
Mi trébol de buena suerte

            Dm
Prefiero morir junto a ti

      G
A no verte, no no no nooo…


PUENTE
F - G - Em -Am


                     F
Ay mi trébol de buena suerte

            Dm
Prefiero morir junto a ti

      G
A no verte


RIFF

E|--8-7---8-7---8-7---8-7----|
B|------8-----8-----8-----8--|
G|---------------------------| X 2
D|---------------------------|
A|---------------------------|
E|---------------------------|



FINAL

                    (Riff)
    C                 F
E|--0--1--1s3--3--1--0-----|
B|---------------------1---|
G|-------------------------| (Ésta parte se toca hasta
D|-------------------------| que acaba la canción)
A|--3----------------------|
E|-------------------------|
       A  don--de va-yas iré
00:00 / 00:00
Outros vídeos desta música
Repetir
Outros vídeos desta música
3.151 exibições
    • ½ Tom
    • A
    • Bb
    • B
    • C
    • Db
    • D
    • Eb
    • E
    • F
    • F#
    • G
    • Ab
  • Adicionar à lista

Afinação da cifra

Afinador online

    0 comentários

    Ver todos os comentários

    Conseguiu tocar?

    0 Tocaram 0 Ainda não

    Grave um vídeo tocando Mi Credo e nos envie!

    Toque também

    1. Imagem do artista Joan Sebastian Eso Y Mas Joan Sebastian
    2. Imagem do artista José José El Triste José José
    3. Imagem do artista Marco Antonio Solís Si No Te Hubieras Ido Marco Antonio Solís
    4. Imagem do artista Vicente Fernández Un Millón de Primaveras Vicente Fernández

    Entre para o Cifra Club PRO

    Tenha acesso a benefícios exclusivos no App e no Site

    • Chega de anúncios

    • Mais recursos no app do Afinador

    • Atendimento Prioritário

    • Aumente seu limite de lista

    • Ajude a produzir mais conteúdo

    00:00 / 00:00

    Cifra Club Pro

    Aproveite o Cifra Club com benefícios exclusivos e sem anúncios
    Cifra Club Pro
    Aproveite o Cifra Club com benefícios exclusivos e sem anúncios
    OK