Cifra Club

Army Of Cops

Pig Destroyer

Cifra: Principal (violão e guitarra)
Selo Cifra Club: esta cifra foi revisada para atender aos critérios oficiais da nossa Equipe de Qualidade.
tom: A
[Intro]
E|------|
B|------|
G|------|
D|------|
A|------|
E|------|
A|-19/0-|
        
        I
E|---------------------------------------------------------------------|
B|---------------------------------------------------------------------|
G|---------------------------------------------------------------------|
D|---------------------------------------------------------------------|
A|---------------------------------------------------------------------|
E|------------5h8---2h5---5h8---8h11-----------5h8---2h5---5h8---------|
E|------0-0-0-----0-----0-----0------0-0--0-0------0-----0-----3-2-1-0-|
          . .     .     .     .      .    . .      .     .     . . . 

        II
E|----------------------------------------------------------------|
B|----------------------------------------------------------------|
G|----------------------------------------------------------------|
D|----------------------------------------------------------------|
A|--------------------------------------------------------6--0----| I,II,I,IIa
E|-------5h8---2h5---5h8---8h11-----------5h8---2h5---5h8-6--0----|
E|----0-0-----0-----0-----0------0-0--0-0------0-----0----6--0----|
      . .     .     .     .      .    . .      .     .      

        IIa
E|------------------------------------------------------------------|
B|------------------------------------------------------------------|
G|------------------------------------------------------------------|
D|------------------------------------------------------------------|
A|------------------------------------------------------------------|
E|-------5h8---2h5---5h8---8h11------------5h8---2h5---5h8----------|
E|----0-0-----0-----0-----0------0-0--0-0------0-----0--------------|
      . .     .     .     .      .    . .      .     .     
        
        III
E|-------------------|
B|-0-----------------|
G|-x-----------------|
D|-11--5---8---7-----| x4
A|-x---x---x---x-----|
E|-9---3---6---5--5*-|
E|-------------------|
 
        IIIa
E|---------------------------------------|
B|---------------------------------------|
G|---------------------------------------|
D|-7--7/10-10/9--9/13--13/12--12/15--15--|
A|-x--x-x--x--x--x/x---x--x---x--x---x---|
E|-5--5/8--8-/7--7/11--11/10--10/13--13--|
E|---------------------------------------|

        IV
E|----------------------------------------------------------------------|
B|----------------------------------------------------------------------|
G|----------------------------------------------------------------------|
D|-------------------7/8-/6-------------------7/8-/6--------------------|
A|-------------------x-x--x-------------------x-x--x--------------------|
E|-------------------5/10/4-------------------5/10/4--------------------|
E|-0h6-0-0h6-0-0h6-0--------0h6-0-0h6-0-0h6-0---------0h6-0-0h6-0-0h6-0-|
       .     .     .            .     .     .             .     .     . 

E|-------------------------------------------------|
B|-------------------------------------------------|
G|-------------------------------------------------|
D|----7/8-/6----7-7--10-10--9-9--12-12--10-10--7-7-|
A|----x-x--x----x-x--x--x---x-x--x--x---x--x---x-x-|
E|----5/10/4----5-5--8--8---7-7--10-10--8--8---5-5-|
E|-------------------------------------------------|

I
II
I
IIa

        V

E|-------------------|
B|-0-----------------|
G|-x-----------------|
D|-13--5---8---7~----| x3
A|-x---x---x---x-----|
E|-11--3---6---5~----|
E|-------------------|
                                     
        Va
E|--------------------------|
B|-0------------------------|
G|-x------------------------|
D|-13--5---8---7/11--5/11---|
A|-x---x---x---x-x---x-x----|
E|-11--3---6---5/9---7/9----|
E|--------------------------|

        VI

E|------------------------------|
B|------------------------------|
G|------------------------------|
D|------------------------------| x8
A|-0-0--0-2-2--2-3-3--3-5-5--5--|
E|-0-0--0-2-2--2-3-3--3-5-5--5--|
E|-0-0--0-2-2--2-3-3--3-5-5--5--|

VIa

E|------|
B|------|
G|------|
D|------|
A|-0----|
E|-0----|
E|-0----|



        VII
E|-----------------------------------------------------------------|
B|-----------------------------------------------------------------|
G|-----------------------------------------------------------------|
D|-13--10----------------------------------------------------------| 8
A|-x---x-----------------------------------------------------------| x4 END on  x  on 4th runthrough
E|-11--8-----------------------------------------------------------| 10
E|---------0-0-0-0-0-0-0-0-0-0-0-0-0-0-0-0-0-0-0-0-0-0-0-0-0-0-0-0-|
           . . . ^ . . . ^ . . . ^ . . . ^ . . . ^ . . . ^ . . . ^

        VIII
E|------------------------------------------------------------------|
B|------------------------------------------------------------------|
G|------------------------------------------------------------------|
D|----------------------------------------------------------13--10--|
A|-3-6-3-5-0-1-0-------3h4---------3-6-3-5-0-1-0---0-0-0-0--x---x---|
E|-3-6-3-5-0-1-0-3h5----------5t6--3-6-3-5-0-1-0-5-0-0-0-0--11--8---|
E|-3-6-3-5-0-1-0-----3----6-5------3-6-3-5-0-1-0---0-0-0-0----------|
   . . . . . . .     .    . .      . . . . . . .   . . . .
                                                                       x2

E|------------------------------------------------------------------|
B|------------------------------------------------------------------|
G|------------------------------------------------------------------|
D|----------------------------------------------------------13--16--|
A|-3-6-3-5-0-1-0-------3h4---------3-6-3-5-0-1-0---0-0-0-0--x---x---|
E|-3-6-3-5-0-1-0-3h5----------5t6--3-6-3-5-0-1-0-5-0-0-0-0--11--14--|
E|-3-6-3-5-0-1-0-----3----6-5------3-6-3-5-0-1-0---0-0-0-0----------|
   . . . . . . .     .    . .      . . . . . . .   . . . .

        IX
E|-----------------------------------------------------------------------------|
B|-----------------------------------------------------------------------------|
G|-----------------------------------------------------------------------------|
D|-11/10----------------------------------11/10--------------------------------|
A|-x--x-----------------------------------x--x---------------------------------|
E|-9/-8-----------------------------------9/-8--------------------6-----4------|
E|--------0-0-0-0-0-0-0-0-0-0-0-0-0-0-0-0-------0-0-0-0-0-0-0-0-0---6-5---4-3~-|
          . . . . . . . . . . . . . . . .       . . . . . . . . .   
                                                                                x2
E|-----------------------------------------------------------------------------|
B|-----------------------------------------------------------------------------|
G|-----------------------------------------------------------------------------|
D|-13/10-------------------------13/10-13/10-----------------------------------|
A|-x--x--------------------------x--x--x--x------------------------------------|
E|-11/8--------------------------11/8--11/8-------------------6-----9----------|
E|-------0-0-0-0-0-0-0-0-0-0-0-0-------------0-0-0-0-0-0-0-0---7-6---10-9~-----|
         . . . . . . . . . . . .             . . . . . . . . 

        X

E|------------------------------------------------------------------|
B|------------------------------------------------------------------|
G|------------------------------------------------------------------|
D|----------------------------------------------------------13--10--|
A|-0-0-0-0-0-0-0-0-0-0-0-0-0-0-0-0-0-0-0-0-0-0-0-0-0-0-0-0--x---x---| x4
E|----------------------------------------------------------11--8---|
E|------------------------------------------------------------------|
   . . . ^ . . . ^ . . . ^ . . . ^ . . . ^ . . . ^ . . . ^

LEGEND
E|---------------------------------------------------------|
| *=Pinch harmonic      ^=Accentuated note      ~=Vibrato |
| /=Slide               h=Hammer on             t=Trill   |
| .=Palm Mute           p=Pull off                        |
E|---------------------------------------------------------|
Outros vídeos desta música
    3 exibições
      • ½ Tom
      • A
      • Bb
      • B
      • C
      • Db
      • D
      • Eb
      • E
      • F
      • F#
      • G
      • Ab
    • Adicionar à lista

    Afinação da cifra

    Afinador online

      0 comentários

      Ver todos os comentários

      Conseguiu tocar?

      0Tocaram0Ainda não

      Grave um vídeo tocando Army Of Cops e nos envie!

      Toque também

      1. Imagem do artista NasumDisdain And Contempt Nasum
      2. Imagem do artista Brutal TruthBirth Of Ignorance Brutal Truth
      3. Imagem do artista Discordance AxisCarcass Lottery Discordance Axis
      4. Imagem do artista Cephalic CarnageBlack Metal Sabbath Cephalic Carnage

      Entre para o Cifra Club PRO

      Tenha acesso a benefícios exclusivos no App e no Site

      • Chega de anúncios

      • Badges exclusivas

      • Mais recursos no app do Afinador

      • Atendimento Prioritário

      • Aumente seu limite de lista

      • Ajude a produzir mais conteúdo

      Cifra Club Pro

      Aproveite o Cifra Club com benefícios exclusivos e sem anúncios
      Cifra Club Pro
      Aproveite o Cifra Club com benefícios exclusivos e sem anúncios
      Ops (: Contenido disponible sólo en portugués.
      OK