Cifra Club

New Recording 12, Jan 3, 2020

Post Malone

Cifra: Principal (violão e guitarra)
Selo Cifra Club: esta cifra foi revisada para atender aos critérios oficiais da nossa Equipe de Qualidade.
tom: G
[Primeira Parte]

[Tab - Primeira Parte]

E|--------------------------------|--------------------------------|
B|--------------------------------|--------------------------------|
G|--4-------2------1-------1------|--4-------2------1-------1------|
D|--------------------------------|--------------------------------|
A|--------------------------------|--------------------------------|
E|--0----0----0----0----0----0----|--0----0----0----0----0----0----|

E|--------------------------------|--------------------------------|
B|--------------------------------|--------------------------------|
G|--4-------2------6-h7-6----2----|--1-------1------1-------1------|
D|--------------------------------|--------------------------------|
A|--0----0----0----0----0----0----|--------------------------------|
E|--------------------------------|--0----0----0----0----0----0----|

[Segunda Parte]

Bm             A           E
  Took another sip from my ash can
Bm            A            E
  It didn't bother me too much
Bm             A           E
  Spit another tooth in the trash can
Bm              A          E
  Don't bother keepin' touch
C#m          Ab          A
  When I go out, ain't gonna hurt at all
E             A         Am
  Choir angels, euthanasia
00:00 / 00:00
Outros vídeos desta música
Repetir
Outros vídeos desta música
313 exibições
    • ½ Tom
    • A
    • Bb
    • B
    • C
    • Db
    • D
    • Eb
    • E
    • F
    • F#
    • G
    • Ab
  • Adicionar à lista

Afinação da cifra

Afinador online

    0 comentários

    Ver todos os comentários

    Entre para o Cifra Club PRO

    Tenha acesso a benefícios exclusivos no App e no Site

    • Chega de anúncios

    • Mais recursos no app do Afinador

    • Atendimento Prioritário

    • Aumente seu limite de lista

    • Ajude a produzir mais conteúdo

    00:00 / 00:00

    Cifra Club Pro

    Aproveite o Cifra Club com benefícios exclusivos e sem anúncios
    Cifra Club Pro
    Aproveite o Cifra Club com benefícios exclusivos e sem anúncios
    OK