Cifra Club

Alvejante (part. Zé Vaqueiro)

Priscila Senna

Cifra: Principal (violão e guitarra)
tom: F#m
[Intro]

[Tab - Dedilhado Intro] 
  

E|-----2-----------------------------------|
B|--2--------------------------------------|
G|--------2--1--2--1-----------------------|
D|-----4-----------------4-----------------|
A|--4-----0-----0-----4--4-----------------|
E|-----------4-----4-----2-----------------|

[Primeira Parte]

    F#m
Cê não avisou

Pro meu coração
     E
Que tava passando só de visita
       D
Que o lance ia ser passageiro
      C#7(4)            C#7/F
Que o a ver navios, cairia perfeito pra mim

[Refrão]

                  F#m
Lavei a roupa de cama
                                              E
Mas o infeliz do teu cheiro tá entranhado em mim
                                        D
Dei geral na casa toda e do coração esqueci

Fui no supermercado comprar alvejante
              C#7
Que o meu acabou
                                       
Mas o material de limpeza limpa sujeira
            F#m  
Não limpa amor

C#7                   F#m
    Lavei a roupa de cama
                                              E
Mas o infeliz do teu cheiro tá entranhado em mim
                                        D
Dei geral na casa toda e do coração esqueci

Fui no supermercado comprar alvejante
              C#7
Que o meu acabou

Mas o material de limpeza limpa sujeira
            F#m
Não limpa amor
            E 
Não limpa amor
           D  
É o Zé Vaqueiro
        C#7 
O original

[Solo] F#m  E  D  C#7 

Parte 1 de 4
  F#m                E
E|----5-4-2----5-4-2-----4--------4---------|
B|--2--------2-------------7-5------7-5-----|
G|----2-1------2-1-----4--------4-----------|
D|--------4--------4------------------------|
A|------------------------------------------|
E|------------------------------------------|

Parte 2 de 4
  D
E|--5-5-5--4-4-4--2-2-2---------------------|
B|--7-7-7--5-5-5--3-3-3---------------------|
G|------------------------------------------|
D|------------------------------------------|
A|------------------------------------------|
E|------------------------------------------|

Parte 3 de 4
                          C#7
E|--5-5-5--4-4-4--2-2-2---------------------|
B|--7-7-7--5-5-5--3-3-3---2h3p2---2---------|
G|------------------------------4-----------|
D|------------------------------------------|
A|------------------------------------------|
E|------------------------------------------|

Parte 4 de 4
E|--9h10----9-------------------------------|
B|-------12---------------------------------|
G|------------------------------------------|
D|------------------------------------------|
A|------------------------------------------|
E|------------------------------------------|

[Primeira Parte]

    F#m
Cê não avisou

Pro meu coração
     E
Que tava passando só de visita
       D
Que o lance ia ser passageiro
      C#7                     
Que o a ver navios, cairia perfeito pra mim

[Refrão Final]

                  F#m
Lavei a roupa de cama
                                              E
Mas o infeliz do teu cheiro tá entranhado em mim
                                        D
Dei geral na casa toda e do coração esqueci

Fui no supermercado comprar alvejante
              C#7
Que o meu acabou
                                       
Mas o material de limpeza limpa sujeira
            F#m  
Não limpa amor

         C#7      F#m
Lavei a roupa de cama
                                              E
Mas o infeliz do teu cheiro tá entranhado em mim
                                        D
Dei geral na casa toda e do coração esqueci

Fui no supermercado comprar alvejante
              C#7
Que o meu acabou

Mas o material de limpeza limpa sujeira
            F#m
Não limpa amor

[Final]

   C#7            F#m
Lavei a roupa de cama
                                              E
Mas o infeliz do teu cheiro tá entranhado em mim
                                        D
Dei geral na casa toda e do coração esqueci

Fui no supermercado comprar alvejante
              C#7
Que o meu acabou

Mas o material de limpeza limpa sujeira
            F#m
Não limpa amor

            E 
Não limpa amor
            D
Não limpa amor
              C#7
Que o meu acabou

Mas o material de limpeza limpa sujeira
            F#m
Não limpa amor
00:00 / 00:00
Outros vídeos desta música
Repetir
Outros vídeos desta música
Composição de Céu Maia
Colaboração e revisão:
  • Gustavo Zanandrez
  • Mary Ferreira
156.317 exibições
  • Simplificar cifra
    • ½ Tom
    • Am
    • Bbm
    • Bm
    • Cm
    • C#m
    • Dm
    • Ebm
    • Em
    • Fm
    • F#m
    • Gm
    • G#m
  • Adicionar à lista

    0 comentários

    Ver todos os comentários

    Conseguiu tocar?

    9 Tocaram 0 Ainda não

    Grave um vídeo tocando Alvejante (part. Zé Vaqueiro) e nos envie!

    Entre para oCifra Club PRO

    Tenha acesso a benefícios exclusivos no App e no Site

    • Chega de anúncios

    • Prioridade de compra em lançamentos

    • Mais recursos no app do Afinador

    • Atendimento Prioritário

    • Descontos nos produtos Cifra Club

    • Ajude a produzir mais conteúdo

    00:00 / 00:00

    Cifra Club Pro

    Aproveite o Cifra Club com benefícios exclusivos e sem anúncios
    Cifra Club Pro
    Aproveite o Cifra Club com benefícios exclusivos e sem anúncios
    OK