Cifra Club

Milonga de andar lejos

Quilapayún

Cifra: Principal (violão e guitarra)
Selo Cifra Club: esta cifra foi revisada para atender aos critérios oficiais da nossa Equipe de Qualidade.
tom: Dm
E|----------------------------------6----------------6--------|
B|----------------------------5-------5---5----5-------5---5--|
G|------------------------------6-------6--------6-------6----|
D|---0-2-3-5-5/--7~---------------5----------------5----------|
A|-0----------------------------------------------------------|
E|--------------------0/----5----------------5----------------|

E|---------5---------------5---------------0---------------0------------|
B|---5-------5---5---4-------4---4---3-------3---3---2-------2---2------|
G|-----5-------5-------5-------5-------0-------0-------0-------0--------|
D|-3-----3---------3-----3---------------3---------------2--------------|
A|-------------------------------------------------0--------------------|
E|---------------------------------3------------------------------------|

E|-----------0-1-3~----5---|
B|---------3-----------4---|
G|-------2-------------5---|
D|-----0--------------4----|
A|---0---------------------|
E|-0-----------------------|

  Dm                    G
A)Qué lejos está mi tierra
                   C
Y sin embargo qué cerca
                        F
Pues que existe un territorio
A7                 Dm
Donde la sangre se mescla

A)Tanta distancia y camino
Tan diferentes banderas
Y la pobreza es la misma
Los mismos hombres esperan

    Bb       C       D
B)Yo quiero romper mi mapa
Bb       Eb       G#
Formar el mapa de todos
G#          C#
Mestizos, negros y blancos
Dm
Trazarlo codo con codo

Interludio:
E|-1-----1-----1---| 0-----3-----3---|5-----5-----5---|5-----5-----5---|
B|---0-----0-----0-|--2-----2-----2-|--5-----5-----5-|--4-----4-----4-|
G|-----2-----2-----|----0-----0-----|----5-----5-----|----5-----5-----|
D|-----------------|----------------|----------------|----------------|
A|-----------------| 0-----0-----0---|----------------|----------------|
E|-0-----0-----0---|----------------| 3-----3-----3---|3-----3-----3---|

E|-0-----0-----0---|-0-----0-----0---|-1-----1-----1h3p1-|
B|---3-----3-----3-|---2-----2-----2-|---3-----3---------|
G|-----0-----0-----|-----0-----0-----|-----2-----2-------|
D|-----------------|-----------------|-------------------|
A|-----------------|-0-----0-----0---|-------------------|
E|-3-----3-----3---|-----------------|-0-----------------|

A)Los ríos son como venas
De un cuerpo entero extendido
Y es el color de la tierra
La sangre de los caídos

A)No somos los extranjeros
Los extranjeros son otros
Son ellos los mercaderes
Y los esclavos nosotros

      Bb       C       D
B*)Yo quiero romper la vida
Bb       Eb       G#
Como cambiarla quisiera
Eb          G#
Ayudeme compañero
Eb          G#
Ayudeme no demore
G#              C#
Que una gota con ser poco
Dm               A7
Con otra se hace aguacero
D           A7        D
Con otra se hace aguacero
D           A7        D
Con otra se hace aguacero.
Outros vídeos desta música
109 exibições
    • ½ Tom
    • Am
    • Bbm
    • Bm
    • Cm
    • C#m
    • Dm
    • Ebm
    • Em
    • Fm
    • F#m
    • Gm
    • G#m
  • Adicionar à lista

Afinação da cifra

Afinador online

    0 comentários

    Ver todos os comentários

    Conseguiu tocar?

    0 Tocaram 0 Ainda não

    Grave um vídeo tocando Milonga de andar lejos e nos envie!

    Toque também

    1. Imagem do artista Violeta Parra La Jardinera Violeta Parra
    2. Imagem do artista Victor Jara El Derecho de Vivir En Paz Victor Jara
    3. Imagem do artista Illapu Vuelvo para vivir Illapu
    4. Imagem do artista Patricio Manns Arriba En La Cordillera Patricio Manns

    Entre para o Cifra Club PRO

    Tenha acesso a benefícios exclusivos no App e no Site

    • Chega de anúncios

    • Mais recursos no app do Afinador

    • Atendimento Prioritário

    • Aumente seu limite de lista

    • Ajude a produzir mais conteúdo

    Cifra Club Pro

    Aproveite o Cifra Club com benefícios exclusivos e sem anúncios
    Cifra Club Pro
    Aproveite o Cifra Club com benefícios exclusivos e sem anúncios
    OK