Cifra Club

Aprenda

I Believe In Miracles

Ramones

Tab de baixo: Versão 2
Já pensou em usar uma coleção de roupas do Cifra Club? Responda as perguntas abaixo e nos ajude nessa missão! →
riff 1
G|---------------------------------------------------------------------------|
D|-----------------------2-2-------------------------------------------------|
A|2-2-2-2--------------------------------------------------------------------|
E|---------2-2--3-3-3-3------------------------------------------------------|

riff 2
G|---------------------------------------------------------------------------|
D|-------------------------2-2-----------------------------------------------|
A|0-0-0-0-0-0-0-0-0-0-0-0----------------------------------------------------|
E|---------------------------------------------------------------------------|

riff 3
G|---------------------------------------------------------------------------|
D|---------------------------------------------------------------------------|
A|---------------------------------------------------------------------------|
E|7-7-7-7-7-7-7-7-5-5-5-5-5-5-5-5-3-3-3-3-3-3-3-3--3-2-3-5-------------------|

G|---------------------------------------------------------------------------|
D|---------------------------------------------------------------------------|
A|---------------------------------------------------------------------------|
E|7-7-7-7-7-7-7-7-5-5-5-5-5-5-5-5-3-3-3-3-3-3-3-3-3-3-3-3-3-3-3-3------------|

riff 4
G|---------------------------------------------------------------------------|
D|---------------------------------------------------------------------------|
A|---------------------------------------------------------------------------|
E|5-5-5-5-5-5-5-5-5-5-5-5-5-5-5-5-3-3-3-3-3-3-3-3-3-3-3-3-3-3-3-3------------|


G|---------------------------------------------------------------------------|
D|---------------------------------------------------------------------------|
A|---------------------------------------------------------------------------|
E|5-5-5-5-5-5-5-5-5-5-5-5-5-5-5-5-3-3-3-3-3-3-3-3-5-5-5-5-5-5-5-5------------|

riff 5
G|---------------------------------------------------------------------------|
D|-----------------------2-2-------------------------------------------------|
A|2-2-2-2---------------------2r---------------------------------------------|
E|---------2-2--3-3-3-3------------------------------------------------------|

riff 1   x3
riff 2   x1
riff 1   x3
riff 2   x1
riff 1   x3
riff 2   x1
riff 3   x2
riff 1   x3
riff 2   x1
riff 1   x3
riff 2   x1
riff 3   x2
riff 4   x1
riff 1   x3
riff 2   x1
riff 3   x2
riff 1   x3
riff 5   x1
Composição de Daniel Rey / Dee Dee Ramone
1.207 exibições

0 comentários

Ver todos os comentários

Conseguiu tocar?

1 Tocaram 0 Ainda não

Grave um vídeo tocando I Believe In Miracles e nos envie!

00:00 / 00:00
Outros vídeos desta música
Repetir Qualidade Automático
Outros vídeos desta música
00:00 / 00:00
Automático

Cifra Club Pro

Aproveite o Cifra Club com benefícios exclusivos e sem anúncios
Cifra Club Pro
Aproveite o Cifra Club com benefícios exclusivos e sem anúncios
OK