Cifra Club

Outsider

Ramones

Tab de baixo: Principal
G------------------------------------------------------------
D------------------------------------------------------------
A------------------------------------------------------------
E-5---5-5-5-5-5-5-5-5-5-5-5-5-5-3---3-3-3-3-3-3-3-3-3-3-3-3-3

Post-Chorus 1: X2
G----------------------------
D----------------------------
A----------------------------
E-5---5-5-5-5-5-5-5-5-5-3---3

Chorus 2: X4
G------------------------------------------------------------
D------------------------------------------------------------
A------------------------------------------------------------
E-5---5-5-5-5-5-5-5-5-5-5-5-5-5-3---3-3-3-3-3-3-3-3-3-3-3-3-3

Verse 1: X4
G----------------------------
D----------------------------
A----------------------------
E-3---3-3-3-3-3-5---5-5-5-5-5

Riff Before Bridge:      X3                   X1
G----------------------------|------------------------------
D----------------------------|------------------------------
A----------------------------|------------------------------
E-5---5-5-5-5-5-5-5-5-5-3---3|-5---5-5-5-5-5-5-5-5-5-5-5-5-5  
                        
Bridge: X2
G----------------------------------------------------------
D----------------------------------------------------------
A---------------4---4-4-4-4-4-2---2-2-2-2-2-2-2-2-2-2-2-2-2
E-2---2-2-2-2-2--------------------------------------------

(Continued)
G----------------------------------------------------------
D-4---4-4-4-4-4--------------------------------------------
A---------------4---4-4-4-4-4-2---2-2-2-2-2-2-2-2-2-2-2-2-2
E----------------------------------------------------------

 
Riff After Bridge: X1
G------------------------------
D------------------------------
A------------------------------
E-2---2-2-2-2-2-2-2-2-2-2-2-2-2

Verse 2: X4
G----------------------------
D----------------------------
A----------------------------
E-3---3-3-3-3-3-5---5-5-5-5-5

Chorus 3: X4
G------------------------------------------------------------
D------------------------------------------------------------
A------------------------------------------------------------
E-5---5-5-5-5-5-5-5-5-5-5-5-5-5-3---3-3-3-3-3-3-3-3-3-3-3-3-3

Outro:                  X3    X1
G----------------------------|---
D----------------------------|---
A----------------------------|---
E-5---5-5-5-5-5-5-5-5-5-3---3|-5~
exibições 1.047
Composição: Dee Dee Ramone Colaboração e revisão:
  • Aerson Moreira

0 comentários

mostrar mais comentários

Conseguiu tocar?

0 tocaram 0 ainda não

Grave um vídeo tocando Outsider e mande pra gente!

00:00 / 00:00
outros vídeos desta música
repetir qualidade Automático
Outros vídeos desta música
00:00 / 00:00
Automático
OK