Notificações Amigos pendentes

      Ratos de Porão

      Beber até morrer

      40.080 exibições
      Tom: D
      Intro e base
      
      
      e|--------------------------------------------------------|
      b|--------------------------------------------------------|
      g|--------------------------------------------------------|
      d|-9-------9-------9-----------9-------9-------9----------|
      a|-7-------7-------7------7-5--7-------7-------7-------5-7|
      E|-0-000-0---000-0---000--5-3--0-000-0---000-0--000-0--3-5|
      
      
      
      Refrão - pt1
      
      
      e|--------------------------------------------------------|
      b|--------------------------------------------------------|
      g|--------------------------------------------------------|
      d|--------------------------------------------------------|
      a|-7--------777777-9999999-7--------77777777-444444444----|
      E|-0-00000--555555-7777777-0-000000-55555555-222222222----|
      
      
      
      
      Refrão - pt2
      
      
      e|--------------------------------------------------------|
      b|--------------------------------------------------------|
      g|--------------------------------------------------------|
      d|-9------------------------------------------------------|
      a|-7--------777777-9999999-7--------77777777-999999999----|
      E|-0-00000--555555-7777777-0-000000-55555555-777777777----|
      
      
      
      
      Base
      
      Por que será que o homem quando foge de si mesmo.              
      Se afoga na bebida e se droga sem parar.
      Será que a vida imposta é perder o vale tudo ?
      Ou viver sempre chapado é melhor do que lutar.
      
      Refrão pt1   
                    
      Beber até morrer, essa é a solução
      O tédio me domina, a vida não dá tesão
      
      Refrão pt2
      
      Mais um outro porre desses você nunca vai esquecer
      Que o fígado é só seu e de mais ninguém
      
      Base
      
      Baratas nas paredes, aranhas pelo chão             
      Cobras na sua cama e ratos no porão
      Problemas na cabeça não dá quase pra pensar
      Enfie o dedo na guela e tente vomitar 
      
      
      Refrão
      
      Base
      
      Sua noite terminou de cara numa privada
      Os problemas voltarão junto com uma puta ressaca
      Por que você não bebe apenas pra se divertir?
      Lute com a cara limpa, você não vai desistir

      Comentários 0

      140 .
      140 cancelar

      conseguiu tocar?

      covers

      Grave um vídeo tocando Beber até morrer e mande pra gente!

      Ex.: http://www.youtube.com/watch?v=0IvSvIwGdwk
      ver covers de outras músicas »
      0:00 / 0:00

      Capítulos

        1 versão de violão dificuldade exibições contribuição e correção
        1 versão de guitarra dificuldade exibições contribuição e correção
        1 versão de cavaco dificuldade exibições contribuição e correção
        1 versão de teclado dificuldade exibições contribuição e correção
        1 versão de baixo exibições contribuição e correção
        1 versão de Guitar Proformatodownloadscontribuição
        play/pausefechar subir/descer velocidade
        6ª corda E5ª corda A4ª corda D3ª corda G2ª corda B1ª corda E
          acordes
          publicidade
          fechar
          ok