Cifra Club

In The Morning Solo

Razorlight

Cifra: Principal (violão e guitarra)
Selo Cifra Club: esta cifra foi revisada para atender aos critérios oficiais da nossa Equipe de Qualidade.
tom: D
You need to listen to song first, and then you will pick up the rhythm, but I think it 
something like this. there are other little bits in it, but their are two distorted 
so its hard to make it out, but this sounds about right anyway.


|----------------------------------------------------10-------12-----12-|
|--13-12-10---------------------13-12-10--------------------------------|
|-----------12-12-11-9-------------------12-12-11-12----12--12--12-12---|
|----------------------12-10-9------------------------------------------|
|-----------------------------------------------------------------------|
|-----------------------------------------------------------------------|

|------12---10-h12p-10---12-----12-----12---10-h12p-10----------------|
|---------------------------------------------------------------------|
|-12-12--12------------12--12--12-12-12--12---------------------------|
|---------------------------------------------------------------------|
|---------------------------------------------------------------------|
|---------------------------------------------------------------------|

Tabbed by: jhumby5 aka The Big Bad Bambino
Outros vídeos desta música
    325 exibições
      • ½ Tom
      • A
      • Bb
      • B
      • C
      • Db
      • D
      • Eb
      • E
      • F
      • F#
      • G
      • Ab
    • Adicionar à lista

    Afinação da cifra

    Afinador online

      0 comentários

      Ver todos os comentários

      Entre para o Cifra Club PRO

      Tenha acesso a benefícios exclusivos no App e no Site

      • Chega de anúncios

      • Badges exclusivas

      • Mais recursos no app do Afinador

      • Atendimento Prioritário

      • Aumente seu limite de lista

      • Ajude a produzir mais conteúdo

      Cifra Club Pro

      Aproveite o Cifra Club com benefícios exclusivos e sem anúncios
      Cifra Club Pro
      Aproveite o Cifra Club com benefícios exclusivos e sem anúncios
      Ops (: Contenido disponible sólo en portugués.
      OK