Cifra Club

Come And Get Your Love

Redbone

Tab de baixo: Principal
Selo Cifra Club: esta cifra foi revisada para atender aos critérios oficiais da nossa Equipe de Qualidade.
[Intro]

G|----------------------------------------------|
D|----------------------------------------------|(2x)
A|--5-------5---------5-----5-5-----------------|
E|------7-5-----7-5-----7-5-----7-5-------------|

[Primeira Parte]

G|----------------------------------------------|
D|----------------------------------------------|
A|-----------------4--5--5\---2---2-------------|
E|--0-2-0-3--5-3-5----------2-------2-----------|

G|----------------------------------------------|
D|----------------------------------------------|(7x)
A|-----------------4--5---5-4-2---2-------------|
E|--0-2-0-3--5-3-5------------------2-----------|

[Refrão]

G|----------------------------------------------|
D|----------------------------------------------|
A|-----------------------4-4-5\-------2-2-------|
E|--0--2--0--3--5--3--5-----------2-2-------0-0-|

G|----------------------------------------------|
D|----------------------------------------------|(3x)
A|-----------------------------5-5\-----2-2--2-2|
E|-0-0--0-2-2--2-3-3--3-5-5--5------2-2---------|

G|----------------------------------------------|
D|----------------------------------------------|
A|----------------------------------------------|
E|--0-0--0-2-2--2-3-3--3-5-5--5-----------------|

[Segunda Parte]

G|----------------------------------------------|
D|----------------------------------------------|
A|----------------4-5---5-4-2---2---------------|
E|--0---3-3-5---5-----------------2-------------|

G|----------------------------------------------|
D|----------------------------------------------|(8x)
A|-----------------4--5---5-4-2---2-------------|
E|--0-2-0-3--5-3-5------------------2-----------|

[Refrão]

G|----------------------------------------------|
D|----------------------------------------------|
A|-----------------------4-4---5------2-2---2-2-|
E|--0--2--0--3--5--3--5-----------2-2-----------|

G|----------------------------------------------|
D|----------------------------------------------|(3x)
A|-----------------------------5-5\-----2-2--2-2|
E|-0-0--0-2-2--2-3-3--3-5-5--5------2-2---------|

G|----------------------------------------------|
D|----------------------------------------------|
A|----------------------------------------------|
E|--0-0--0-2-2--2-3-3--3-5-5--------------------|

[Terceira Parte]

G|----------------------------------------------|
D|----------------------------------------------|
A|----------------4-5---5---2---2---------------|
E|--0---0-3-5---5---------2-------2-------------|

G|----------------------------------------------|
D|----------------------------------------------|(3x)
A|-----------------4--5---5-4-2---2-------------|
E|--0-2-0-3--5-3-5------------------2-----------|

[Refrão]

G|----------------------------------------------|
D|----------------------------------------------|
A|-----------------------4-4--5\------2-2---2-2-|
E|--0--2--0--3--5--3--5-----------2-2-----------|

G|----------------------------------------------|
D|----------------------------------------------|(3x)
A|-----------------------------5-5\-----2-2--2-2|
E|-0-0--0-2-2--2-3-3--3-5-5--5------2-2---------|

G|----------------------------------------------|
D|----------------------------------------------|
A|----------------------------------------------|
E|--0-0--0-2-2--2-3-3--3-5-5--5-----------------|

[Quarta Parte]

G|----------------------------------------------|
D|----------------------------------------------|
A|----------------4-5---5-4-2---2---------------|
E|--0---0-3-5---5-----------------2-------------|

G|----------------------------------------------|
D|----------------------------------------------|(2x)
A|-----------------4--5---5-4-2---2-------------|
E|--0-2-0-3--5-3-5------------------2-----------|

G|----------------------------------------------|
D|----------------------------------------------|
A|-----------------4----------------------------|
E|--0-2-0-3--5-3-5------------------------------|

[Ponte] - 2x

G|----------------------------------------------|
D|----------------------------------------------|
A|--5-------5---------5-----5-5-----------------|
E|------7-5-----7-5-----7-5-----7-5-------------|

[Refrão]

G|----------------------------------------------|
D|----------------------------------------------|
A|-------------------4-4-5---5------2-2---2-2---|
E|--0---0--3--5---5-------------2-2-------------|

G|----------------------------------------------|
D|----------------------------------------------|(4x)
A|-----------------------------5-5\-----2-2--2-2|
E|-0-0--0-2-2--2-3-3--3-5-5--5------2-2---------|
Outros vídeos desta música
    18.371 exibições

    Afinação da cifra

    Afinador online

    0 comentários

    Ver todos os comentários

    Entre para o Cifra Club PRO

    Tenha acesso a benefícios exclusivos no App e no Site

    • Chega de anúncios

    • Badges exclusivas

    • Mais recursos no app do Afinador

    • Atendimento Prioritário

    • Aumente seu limite de lista

    • Ajude a produzir mais conteúdo

    Capítulos
    • Apresentação
    • Tocando a Música
    • Encerramento

    Cifra Club Pro

    Aproveite o Cifra Club com benefícios exclusivos e sem anúncios
    Cifra Club Pro
    Aproveite o Cifra Club com benefícios exclusivos e sem anúncios
    Ops (: Contenido disponible sólo en portugués.
    OK