Cifra Club

El poder de tu amor

Ricardo Montaner

Cifra: Principal (violão e guitarra)
tom: C
El Poder...        De Tu Amor...
E|-0-1-3--| |-0-1-3--|
B|--------| |--------|
G|--------| |--------|
D|--------| |--------|
A|--------| |--------|
E|--------| |--------|

Que me lleva a lo profundo como un globo hasta el cielo..
E|-0-1-3--1-1-1-1-1-0-0-0---------|
B|------------------------3-3-3---|
G|--------------------------------|
D|--------------------------------|
A|--------------------------------|
E|--------------------------------|

El Poder...        De Tu Amor...
              (Manteniendo el dedo en el 3er traste)
E|-0-1-3--| |-/5-0-3--|
B|--------| |----------|
G|--------| |----------|
D|--------| |----------|
A|--------| |----------|
E|--------| |----------|

ME sumerge a las alturas y me corta la respiracion..
E|-0-1-3--1-1-1-1-1-0-0-0-------------|
B|------------------------3-3-3-3-----|
G|--------------------------------4/5-|
D|------------------------------------|
A|------------------------------------|
E|------------------------------------|

Yo te juro, No miento

E|------------------------------------|
|0-4-2--0--4-2-0---------------------|
G|------------------------------------|
D|------------------------------------|
A|------------------------------------|
E|------------------------------------|

Que tu amor tiene ese poder
E|------------------------------------|
B|---0-1-3-4-3--1-3-------------------|
G|-2----------------------------------|
D|------------------------------------|
A|------------------------------------|
E|------------------------------------|

El Resto va de la siguiente manera:

            C               G
           Tengo que reconocer
                        Am
          Que me sorprendió el amor
                  F        C
          Me enamoré de sed
                        G
          Y tu eres el agua.

            C                G
           Desnudo al aire libre
                    Am
          Estaba mi corazón
                   F     C
          Hablando solito
                      G
          Con su corazón.

********
(((En esta parte entra el Coro con requinto)))
El Poder, De tu amor
Que me lleva a lo profundo como un globo hasta el cielo
el Poder, de tu amor
ME sumerge a las alturas y me corta la respiracion
yo te juro, no miento
que tu amor tiene ese poder.
********

            C                        G
           Decir que te amo hasta la luna
                      Am
          Eso no bastará
                        F
          A menos que haya otra luna
          C          G
          en la eternidad.

             C                G
           Los seres solo son humanos
                        Am
          si saben justificar
                        F
          que son más humanos
          C         G
          si pueden amar.


********
(((En esta parte entra el Coro con requinto)))
El Poder, De tu amor
Que me lleva a lo profundo como un globo hasta el cielo
el Poder, de tu amor
ME sumerge a las alturas y me corta la respiracion
yo te juro, no miento
que tu amor tiene ese poder.
********
             Am
           De nube en nube va el amor
           G
          De rama en rama va el amor
           F
          De beso en beso va el amor
                G
          A A  cama.

********
(((En esta parte entra el Coro con requinto)))
El Poder, De tu amor
Que me lleva a lo profundo como un globo hasta el cielo
el Poder, de tu amor
ME sumerge a las alturas y me corta la respiracion
yo te juro, no miento
que tu amor tiene ese poder.
********
00:00 / 00:00
Outros vídeos desta música
Repetir
Outros vídeos desta música
Composição de Bebu Silvetti / Ricardo Montaner
1.013 exibições
    • ½ Tom
    • A
    • Bb
    • B
    • C
    • Db
    • D
    • Eb
    • E
    • F
    • F#
    • G
    • Ab
  • Adicionar à lista

    0 comentários

    Ver todos os comentários

    Entre para oCifra Club PRO

    Tenha acesso a benefícios exclusivos no App e no Site

    • Chega de anúncios

    • Prioridade de compra em lançamentos

    • Mais recursos no app do Afinador

    • Atendimento Prioritário

    • Descontos nos produtos Cifra Club

    • Ajude a produzir mais conteúdo

    00:00 / 00:00

    Cifra Club Pro

    Aproveite o Cifra Club com benefícios exclusivos e sem anúncios
    Cifra Club Pro
    Aproveite o Cifra Club com benefícios exclusivos e sem anúncios
    OK