Cifra Club

Yo puedo Hacer

Ricardo Montaner

Cifra: Principal (violão e guitarra)
tom: Bm
INTRO
        D          A                    Bm 
E|---------------------------------------------|
B|-8--8-5/7-7---8-8-5/7-7--8-8-7-7---8-8-7-5/7-|
G|---------------------------------------------|
D|---------------------------------------------|
A|---------------------------------------------|
E|---------------------------------------------|

       D7                              G  
E|---------------------5-7-8/7/5---------------|
B|-8--5----------5-7h8-----------8-7-5-4-------|
G|-------7-5---7-------------------------7-----|
D|---------------------------------------------|
A|---------------------------------------------|
E|---------------------------------------------|

    D               Em7 
E|---------------------------------------------|
B|---------------------------------------------|
G|---------------------------------------------|
D|---------------------------------------------|
A|---------------------------------------------|
E|---------------------------------------------|

 A   (G7sus4  )  A 
E|-----5-5/6/5---5-----------------------------|
B|---8---------8-------------------------------|
G|-7-------------------------------------------|
D|---------------------------------------------|
A|---------------------------------------------|
E|---------------------------------------------|

    D                A                               Bm 
Yo puedo hacer que las violetas habran hoy como a las 10:00
     D7                                  G  
que la luciernaga no apague hasta que pase el tren
      D             Em7                     A  (G7sus4  ) A 
y que Septiembre en adelante caiga ocho todo el mes.


Yo puedo hacer que los deshielos de mi alma no te mojen
que las provincias de tu cuerpo se rindan
a mis versos y el arcoiris te sorprenda en blanco y negro.


CORO:

D               Em7 -F#7                      Bm 
Yo puedo hacer, que tu camino sea igualito al mio
D7                     G                   F#m 
que tus tristezas sean mis tristezas, yo puedo hacer
Em7                              A 
que el cielo se traslade hasta tu puerta.
D             Em7 -F#7                 Bm 
Yo puedo hacer, de cada día tuyo un siglo mio,
D7                  G                  F#m 
de cada sueño tuyo un sueño mio, yo puedo hacer
   Em7                    A 
que veas amanecer con un suspiro.

INTERLUDIO

  D   A  A/ G   G   Bm     D  A  A/ G   G   A 
-9H10--9---5----------5----7-9-9H10-9-5-5H7--------
E|----------------5-----------------------------7| H8-7
B|---------------------------------------------------|
G|---------------------------------------------------|
D|---------------------------------------------------|
A|---------------------------------------------------|

D                     A                            Bm 
Yo puedo hacer a los costados de tu cuerpo mi remanzo
D7                                  G  
y en los balcones de tu pecho mi cabaña
         D             Em7                  A  (G7sus4  ) A 
y en invierno, de los pozos de tu rio beber agua.


CORO
D               Em7 -F#7                     Bm 
Yo puedo hacer, que tu camino sea igualito al mio
D7                   G                   F#m 
que tus tristezas sean mis tristezas, yo puedo hacer
Em7                            A 
que el cielo se traslade hasta tu puerta.
  D             Em7 -F#7                 Bm 
Yo puedo hacer, de cada día tuyo un siglo mio,
D7                  G                  F#m 
de cada sueño tuyo un sueño mio, yo puedo hacer que
Em7                    A 
veas amanecer con un suspiro.


(Yo puedo hacer......)
D  A  F#m  Bm  D7  D  A  (2X)


G  O
 (D )          (A )   (F#m )       (Bm )   (D7 )
E|---------5-6-7-7/8---7/8-8-8-6-5-6---6/5------------------|
B|---5-6-8----------------------------------8-6-5---5-5-----|
G|-7----------------------------------------------6-----8-7-|
D|----------------------------------------------------------|
A|----------------------------------------------------------|
E|----------------------------------------------------------|
 D )                  (A )
E|------4/5------------5-6-7/8\7-6-5------------------------|
B|----5-----8-6-5--7-8---------------8-6-5-4----------------|
G|-7----------------------------------------7--------------|
D|----------------------------------------------------------|
A|----------------------------------------------------------|
E|----------------------------------------------------------|
 (D )            (A )    (F#m )      (Bm )    (D7 )    (A )
E|-9/10-10-10-8-6-8-------6/8-8-8-6-5-6------------5/6-5---5|
B|------------------6-6------------------------6-8-------8--|
G|--------------------------------------7-7--7--------------|
D|----------------------------------------------------------|
A|----------------------------------------------------------|
E|----------------------------------------------------------|
(D ) -  (A ) -  (D )
E|--------------------|
B|-8-8-7-7-5-5-----5--|
G|-------------7-7----|
D|--------------------|
A|--------------------|
E|--------------------|


D              Em7 -F#7                      Bm 
Yo puedo hacer, que tu camino sea igualito al mio
D7                   G                   F#m 
que tus tristezas sean mis tristezas, yo puedo hacer
Em7                            A 
que el cielo se traslade hasta tu puertaaaaaa.
E|---5-6-5----|
B|-8----------|
G|------------|
D|------------|
A|------------|
E|------------|

         D             (G7sus4  )    A                     D 
Yo puedo hacer que las violetas habran hoy como a las diez.....



NOTA: Para variar un poco la canción, en el último coro (G  O)
pueden subir una nota y tocarlo así para terminar, saltando el G  O,
no lo tocan así en el CD pero es otra opción.  Saludos.


E            F#m7 -G#7                       C#m 
Yo puedo hacer, que tu camino sea igualito al mio
E7                   A                  G#m  
que tus tristezas sean mis tristezas, yo puedo hacer
F#m7                            B 
que el cielo se traslade hasta tu puerta.
E            F#m7 -G#7                       C#m 
Yo puedo hacer, de cada día tuyo un siglo mio,
E7                   A                  G#m  
de cada sueño tuyo un sueño mio, yo puedo hacer que
F#m7                            B 
veas amanecer con un suspiro.

ACORDES UTILIZAC S

          E A D G B E   E A D G B E
          | | | | | |   | | | | | |
D         X-X-0-2-3-2   5-5-7-7-7-5
A         X-0-2-2-2-0   5-7-7-6-5-5
Bm        1-1-3-3-2-1   7-9-9-7-7-7
D7        X-X-0-2-1-2   5-5-7-5-7-5
G         3-2-0-0-0-2   3-5-5-4-3-3
Em7       0-2-2-0-3-0   7-7-9-7-8-7
G7sus4    5-5-5-7-8-6   3-5-3-4-3-6
F#7       2-4-2-3-2-2
E7        0-2-2-1-3-0
F#m       2-4-4-2-2-2
F#m7      2-4-2-2-2-2
G#7       4-6-4-5-4-4
00:00 / 00:00
Outros vídeos desta música
Repetir
Outros vídeos desta música
Composição de Ricardo Montaner
47 exibições
    • ½ Tom
    • Am
    • Bbm
    • Bm
    • Cm
    • C#m
    • Dm
    • Ebm
    • Em
    • Fm
    • F#m
    • Gm
    • G#m
  • Adicionar à lista

    0 comentários

    Ver todos os comentários

    Conseguiu tocar?

    0 Tocaram 0 Ainda não

    Grave um vídeo tocando Yo puedo Hacer e nos envie!

    Entre para oCifra Club PRO

    Tenha acesso a benefícios exclusivos no App e no Site

    • Chega de anúncios

    • Prioridade de compra em lançamentos

    • Mais recursos no app do Afinador

    • Atendimento Prioritário

    • Descontos nos produtos Cifra Club

    • Ajude a produzir mais conteúdo

    00:00 / 00:00

    Cifra Club Pro

    Aproveite o Cifra Club com benefícios exclusivos e sem anúncios
    Cifra Club Pro
    Aproveite o Cifra Club com benefícios exclusivos e sem anúncios
    OK