Cifra Club

É Uma Sensação (És Una Sensación)

Rock Bones

Cifra: Principal (violão e guitarra)
Selo Cifra Club: esta cifra foi revisada para atender aos critérios oficiais da nossa Equipe de Qualidade.
tom: C
Intro:
E|-------------------------------------------------|
B|---8-----8---------------------------------------|
G|------9------9--------5------7-------5---7---5---|
D|-------------------------------------------------|
A|-------------------------------------------------|
E|-------------------------------------------------|

E|-------------------------------------------------|
B|---8-----8---------------------------------------|
G|------9-----9----9s---7~-------------------------|
D|-------------------------------------------------|
A|-------------------------------------------------|
E|-------------------------------------------------|

E|-------------------------------------------------|
B|---8-----8---------------------------------------|
G|------9-----9----5-------7------5------7---5-----|
D|-------------------------------------------------|
A|-------------------------------------------------|
E|-------------------------------------------------|

E|-------------------------------------------------|
B|-------------------------------------------------|
G|---9------9-------7-7----------7-----5~--------- |
D|-------------------------------------------------|
A|-------------------------------------------------|
E|-------------------------------------------------|

C               F                     C            G7
Dá-me, dá-me um pouco desse amor, eu não tenho controle
C             F             C   G7   C
Quero, quero olhar pra ti é uma sensação
C                            F                G7
Outra vez me encontro dando voltas não sei o que fazer
C                          F           G7
Carros passam, e quando pensamos que vamos nos ver.
Dm       G7   Dm        G7
Não sei dizer ou o que falar,
F                               G     G7
Quero compartilhar meu tempo contigo
C               F                     C            G7
Dá-me, dá-me um pouco desse amor, eu não tenho controle
C             F             C   G7   C
Quero, quero olhar pra ti é uma sensação
C                   F    G7
Deixe o quadrado perder por aí
   C                F       G7
A  imaginação que vai, e deixa fluir

Dm       G7   Dm        G7
Não sei dizer ou o que falar,
F                               G     G7
Quero compartilhar meu tempo contigo
C               F                     C            G7
Dá-me, dá-me um pouco desse amor, eu não tenho controle
C             F             C   G7   C   A7
Quero, quero olhar pra ti é uma sensação
D               G                     D           A7
Dá-me, dá-me um pouco desse amor, eu não tenho controle
D             G             D    A7  D   G
Quero, quero olhar pra ti é uma sensação
   D   A7  D      D   A7   D   A7  D
É uma Sensação, é uma sensação.
Outros vídeos desta música
    4.307 exibições
      • ½ Tom
      • A
      • Bb
      • B
      • C
      • Db
      • D
      • Eb
      • E
      • F
      • F#
      • G
      • Ab
    • Adicionar à lista

    Afinação da cifra

    Afinador online

      0 comentários

      Ver todos os comentários

      Entre para o Cifra Club PRO

      Tenha acesso a benefícios exclusivos no App e no Site

      • Chega de anúncios

      • Badges exclusivas

      • Mais recursos no app do Afinador

      • Atendimento Prioritário

      • Aumente seu limite de lista

      • Ajude a produzir mais conteúdo

      Cifra Club Pro

      Aproveite o Cifra Club com benefícios exclusivos e sem anúncios
      Cifra Club Pro
      Aproveite o Cifra Club com benefícios exclusivos e sem anúncios
      OK