Cifra Club

I Don't Want To Talk About It

Rod Stewart

Cifra: Simplificada-ao-vivo (violão e guitarra)
tom: A
[Intro]: Bm  E4  E  A

   Bm7
E|----2-----2-----2-------------------------|
B|------3-----3-----3-----------------------|
G|--------2-----2-----2---------------------|
D|------------------------------------------|
A|-2---------------------2------------------|
E|------------------------------------------|

   E4               E
E|------------------------------------------|
B|----10-----10-----9-----9-----9-----------|
G|-------9------9-----9-----9---------------|
D|---------9------9-----9-----9-------------|
A|-7----------------------------------------|
E|------------------------------------------|

   A
E|----5-----5-----5-----5-----5-------------|
B|------5-----5-----5-----5-----------------|
G|--------6-----6-----6-----6---------------|
D|------------------------------------------|
A|------------------------------------------|
E|-5----------------------------------------|

   A
E|----5-----5-----5-----5-----5-------------|
B|------5-----5-----5-----5-----------------|
G|--------6-----6-----6-----6---------------|
D|------------------------------------------|
A|------------------------------------------|
E|-5----------------------------------------|

       Bm
I can tell by your eyes,
             E4            E        A
that you've probably been crying forever.
         Bm                          E4
And the stars in the sky don't mean nothing,
    E              A
to you they're a mirror.

D                   E                  A          E/G#     F#m
    I don't wanna      talk about it,     how you broke my heart.
D                         E
    If I stay here just a little bit longer,
D                            E
    If I stay here won't you listen
      Bm      E4    E         A
to my heart,        my heart.

      Bm
If I stand all alone,
          E4               E              A
will the shadows hide the colours of my heart.

(Blue for the tears, black for the nights).
           Bm                         E4
Well, the stars in the sky don't mean nothing,
    E            A         (A   E/G# F#m E)
to you they're a mirror.

D                   E                  A          E/G#     F#m
    I don't wanna      talk about it,     how you broke my heart.
D                         E
    If I stay here just a little bit longer,
D                            E
    If I stay here won't you listen
      Bm      E4    E         A
to my heart,        my heart.
      Bm      E4     E      (A   E/G# F#m A#)
Oh my heart...       My heart.

Solo: (Cm  F   A#) x2 (A#   F/A Gm F)

D#                  F                  A#         F/A      Gm
    I don't wanna      talk about it,     how you broke my heart.
D#                        F
    If I stay here just a little bit longer,
D#                           F
    If I stay here won't you listen
      Cm      F4     F       A#
to my heart,        oh my heart.
00:00 / 00:00
Outros vídeos desta música
Repetir
Outros vídeos desta música
Composição de Danny Whitten
Colaboração e revisão:
  • Diogo Massaneiro
24.163 exibições
  • Simplificar cifra
    • ½ Tom
    • A
    • Bb
    • B
    • C
    • Db
    • D
    • Eb
    • E
    • F
    • F#
    • G
    • Ab
  • Adicionar à lista

    0 comentários

    Ver todos os comentários

    Entre para oCifra Club PRO

    Tenha acesso a benefícios exclusivos no App e no Site

    • Chega de anúncios

    • Prioridade de compra em lançamentos

    • Mais recursos no app do Afinador

    • Atendimento Prioritário

    • Descontos nos produtos Cifra Club

    • Ajude a produzir mais conteúdo

    00:00 / 00:00

    Cifra Club Pro

    Aproveite o Cifra Club com benefícios exclusivos e sem anúncios
    Cifra Club Pro
    Aproveite o Cifra Club com benefícios exclusivos e sem anúncios
    OK