Enviar cifraEntrar

Hallelujah

Rufus Wainwright

Cifra: Principal
exibições 485.097
Tom: C (com acordes na forma de G) Capotraste na 5ª casa
Intro 2x: G  Em


   G            Em
E|--------------------0--------------------|
B|-0-----3------0--------------------------|
G|-----0---0--------0---0------------------|
D|---0-------0----2-------0----------------|
A|-----------------------------------------|
E|-3---------2--0---------2----------------|


Primeira parte:

      G                 Em
I've heard there was a secret chord
      G                    Em
That David played and it pleased the Lord
     C                D               G      D
But you don't really care for music, do you?

    G                   C           D
It goes like this, the fourth, the fifth
     Em              C
The minor fall, the major lift
     D               Bm          Em
The baffled King composing Hallelujah

Dedilhado Primeira Estrofe:

1ª parte:


   G            Em
E|--------------------0--------------------|
B|-0-----3------0--------------------------|
G|-----0---0--------0---0------------------|
D|---0-------0----2-------0----------------|
A|-----------------------------------------|
E|-3---------2--0---------2----------------|


2ª parte:


   G            Em
E|--------------------0--------------------|
B|-0-----3------0--------------------------|
G|-----0---0--------0---0------------------|
D|---0-------0----2-------2----------------|
A|-----------------------------------------|
E|-3---------2--0---------0----------------|


3ª parte:


   C            D
E|-----------------------------------------|
B|-------1------------3--------------------|
G|-----0---0--------2---2------------------|
D|---2-------2----4-------4----------------|
A|-3---------3--5---------5----------------|
E|-----------------------------------------|


4ª parte:


   G            D
E|-----------------------------------------|
B|-------0------------3--------------------|
G|-----0---0--------2---2------------------|
D|---0-------0----4-------4----------------|
A|---------2-3--5---------5----------------|
E|-3---------------------------------------|


Dedilhado Segunda Estrofe:

1ª parte:


   G            C     D
E|-----------------------------------------|
B|-------0---------------------------------|
G|-----0---0--------0-----2----------------|
D|---0-------0----2-----4------------------|
A|--------------3-----5--------------------|
E|-3---------3-----------------------------|


2ª parte:


   Em           C
E|-------0------------0--------------------|
B|-----0---0--------1---1------------------|
G|---0-------0----0-------0----------------|
D|-----------------------------------------|
A|--------------3---------3----------------|
E|-0---------0-----------------------------|


3ª parte:


   D            Bm
E|-----------------------------------------|
B|-------3------------3--------------------|
G|-----2---2--------4---4------------------|
D|---4-------4----4-------4----------------|
A|-5---------5--2---------2----------------|
E|-----------------------------------------|


4ª parte:


   Em
E|-------0------------0--------------------|
B|-----0---0--------0---0------------------|
G|---0-------0----0-------0----------------|
D|-----------------------------------------|
A|-----------------------------------------|
E|-0---------0--0---------0----------------|


Refrão:

      C           Em
Hallelujah, Hallelujah
      C           G  D  G  D
Hallelujah, Hallelu____jah

Dedilhado Refrão:

1ª parte:


   C
E|-------0------------0--------------------|
B|-----1---1--------1---1------------------|
G|---0-------0----0-------0----------------|
D|-----------------------------------------|
A|-3---------3--3---------3----------------|
E|-----------------------------------------|


2ª parte:


   Em
E|-------0------------0--------------------|
B|-----0---0--------0---0------------------|
G|---0-------0----0-------0----------------|
D|-----------------------------------------|
A|-----------------------------------------|
E|-0---------0--0---------0----------------|


3ª parte:


   C
E|-------0------------0--------------------|
B|-----1---1--------1---1------------------|
G|---0-------0----0-------0----------------|
D|-----------------------------------------|
A|-3---------3--3---------3----------------|
E|-----------------------------------------|


4ª parte 2x:


   G            D
E|-----------------------------------------|
B|-------0------------2--------------------|
G|-----0---0--------3---3------------------|
D|---0-------0----4-------4----------------|
A|--------------5---------5----------------|
E|-3---------3-----------------------------|


Segunda parte:

      G                        Em
Your faith was strong but you needed proof
     G              Em
You saw her bathing on the roof
     C              D          G           D
Her beauty and the moonlight overthrew you

     G             C        D
She tied you to a kitchen chair
      Em
She broke your throne
     C
She cut your hair
      D                  Bm           Em
And from your lips she drew the Hallelujah

Refrão:

      C           Em
Hallelujah, Hallelujah
      C           G  D  G  D
Hallelujah, Hallelu____jah

Terceira parte:

 G                 Em
Maybe I have been here before
    G                   Em
I know this room, I've walked this floor
  C              D              G      D
I used to live alone before I knew you

      G                     C     D
I've seen your flag on the marble arch
 Em            C
Love is not a victory march
        D                Bm         Em
It's a cold and it's a broken Hallelujah

Refrão:

      C           Em
Hallelujah, Hallelujah
      C           G  D  G  D
Hallelujah, Hallelu____jah

Quarta parte:

       G              Em
There was a time you let me know
        G             Em
What's real and going on below
     C              D         G          D
But now you never show it to me, do you?

       G             C        D
And remember when I moved in you
     Em            C
The holy dove was moving too
    D                 Bm           Em
And every breath we drew was Hallelujah

Refrão:

      C           Em
Hallelujah, Hallelujah
      C           G  D  G  D
Hallelujah, Hallelu____jah

Quinta parte:

 G               Em
Maybe there's a God above
    G           Em
And all I ever learned from love
     C                  D            G      D
Was how to shoot at someone who outdrew you

          G                 C       D
And it's not a cry you can hear at night
      Em                 C
It's not somebody who's seen the light
        D                Bm         Em
It's a cold and it's a broken Hallelujah

Refrão:

      C           Em
Hallelujah, Hallelujah
      C           G   D
Hallelujah, Hallelu__jah
      C           Em
Hallelujah, Hallelujah
      C           G  D  G
Hallelujah, Hallelu____jah
  • 1
  • 2
  • 3
  • 4
  • 5
  • 6
  • 7
  • 8
  • 9
  • 10
  • 11
  • 12
    Acordes para:
      Composição: Leonard CohenColaboração e revisão:
      • Leo Eymard

      0 comentários

        mostrar mais comentários

        Conseguiu tocar?

        42tocaram1ainda não

        Grave um vídeo tocando Hallelujah e mande pra gente!

        00:00 / 00:00
        outros vídeos desta música
        repetirqualidadeautomática
        • automática
        Outro vídeos desta música
          Capítulos
          • Início
          • Tocando a música
          • Acordes da Introdução
          • Tocando Introdução
          • Ensinando Introdução
          • Acordes da Primeira Estrofe
          • Tocando Primeira Parte - Primeira Estrofe
          • Ensinando Primeira Parte - Primeira Estrofe
          • Acordes da Primeira Parte - Segunda Estrofe
          • Tocando Primeira Parte - Segunda Estrofe
          • Ensinando Primeira Parte - Segunda Estrofe
          • Tocando Refrão
          • Ensinando Refrão
          • Encerramento
          00:00 / 00:00
          automática
          • automática
          Acordes para:violão e guitarra
          dificuldadeexibiçõescontribuições
          1 versão de Tab de gaitaexibiçõescontribuições
          3 versões de Guitar Proformatodownloadscontribuição
          1 versão de Partiturasformatodownloadscontribuição
          fecharplay/pause subir/descer velocidade
            acordes
            fechar
            OK
            Feedback