Cifra Club

Head For The Hills

Saves The Day

Cifra: Principal (violão e guitarra)
Selo Cifra Club: esta cifra foi revisada para atender aos critérios oficiais da nossa Equipe de Qualidade.
tom: C

First song from the new album, which definitely tears your ears off your head.
Tabbed for one guitar by Dan (*)


Intro

(x2)
e|---------------------------------------------------|
B|--x-x-x-x-x-x-x-x-x-x-x-x-x-x-x-x-0-0-0-0-3-3-3-3--|
G|--5-5-5-5-5-5-5-5-5-5-5-5-5-5-5-5-2-2-2-2-2-2-2-2--|
D|--7-7-7-7-7-7-7-7-7-7-7-7-7-7-7-7-3-3-3-3-3-3-3-3--|
A|--7-7-7-7-7-7-7-7-7-7-7-7-7-7-7-7-3-3-3-3-3-3-3-3--|
E|--5-5-5-5-5-5-5-5-5-5-5-5-5-5-5-5-x-x-x-x-x-x-x-x--|

    Am                              F5b     F6

|--0--
|--1--
|--2--
|--2--
|--0--
|-----
   Am
(Let ring)

Chorus

(x6)
e|-------------------|
B|-------------------|
G|--x-x-x-x-x-x-x-x--|
D|--2-2-3-3-2-2-3-3--|
A|--0-0-2-2-3-3-5-5--|
E|-------------------|

e|-----------1-1-1-1--|
B|-----------1-1-1-1--|
G|--x-x-x-x--2-2-2-2--|
D|--2-2-3-3--3-3-3-3--|
A|--0-0-2-2--3-3-3-3--|
E|-----------1-1-1-1--|

Then:

(x2)
e|---------------------------------------------------|
B|--x-x-x-x-x-x-x-x-x-x-x-x-x-x-x-x-0-0-0-0-3-3-3-3--|
G|--5-5-5-5-5-5-5-5-5-5-5-5-5-5-5-5-2-2-2-2-2-2-2-2--|
D|--7-7-7-7-7-7-7-7-7-7-7-7-7-7-7-7-3-3-3-3-3-3-3-3--|
A|--7-7-7-7-7-7-7-7-7-7-7-7-7-7-7-7-3-3-3-3-3-3-3-3--|
E|--5-5-5-5-5-5-5-5-5-5-5-5-5-5-5-5-x-x-x-x-x-x-x-x--|

|--0--
|--1--
|--2--
|--2--
|--0--
|-----
   Am
(Let ring)

Chorus

(x6)
e|-------------------|
B|-------------------|
G|--x-x-x-x-x-x-x-x--|
D|--2-2-3-3-2-2-3-3--|
A|--0-0-2-2-3-3-5-5--|
E|-------------------|

e|-----------1-1-1-1--|
B|-----------1-1-1-1--|
G|--x-x-x-x--2-2-2-2--|
D|--2-2-3-3--3-3-3-3--|
A|--0-0-2-2--3-3-3-3--|
E|-----------1-1-1-1--|

Bridge

(x4)
e|--5--5----5--5----1--1----1--1----x--x----x--x---5-5-5-3-3-3--|
B|--5--5----5--5----1--1----1--1----3--3----3--3---5-5-5-3-3-3--|
G|--5--5----5--5----2--2----2--2----4--4----4--4---5-5-5-4-4-4--|
D|--7--7----7--7----3--3----3--3----3--3----3--3---7-7-7-5-5-5--|
A|--7--7----7--7----3--3----3--3----x--x----x--x---7-7-7-5-5-5--|
E|--5--5----5--5----1--1----1--1----4--4----4--4---5-5-5-3-3-3--|

e|--5--5----5--5----1--1----1--1----x--x----x--x---5---5-s-3---3-s-1--|
B|--5--5----5--5----1--1----1--1----3--3----3--3---5---5-s-3---3-s-1--|
G|--5--5----5--5----2--2----2--2----4--4----4--4---5---5-s-4---4-s-4--|
D|--7--7----7--7----3--3----3--3----3--3----3--3---7---7-s-5---5-s-3--|
A|--7--7----7--7----3--3----3--3----x--x----x--x---7---7-s-5---5-s-3--|
E|--5--5----5--5----1--1----1--1----4--4----4--4---5---5-s-3---3-s-1--|

Chorus

(x6)
e|-------------------|
B|-------------------|
G|--x-x-x-x-x-x-x-x--|
D|--2-2-3-3-2-2-3-3--|
A|--0-0-2-2-3-3-5-5--|
E|-------------------|

e|-----------1-1-1-1--|
B|-----------1-1-1-1--|
G|--x-x-x-x--2-2-2-2--|
D|--2-2-3-3--3-3-3-3--|
A|--0-0-2-2--3-3-3-3--|
E|-----------1-1-1-1--|

Ending

e|---------------------------------------------------|
B|--x-x-x-x-x-x-x-x-x-x-x-x-x-x-x-x-0-0-0-0-3-3-3-3--|
G|--5-5-5-5-5-5-5-5-5-5-5-5-5-5-5-5-2-2-2-2-2-2-2-2--|
D|--7-7-7-7-7-7-7-7-7-7-7-7-7-7-7-7-3-3-3-3-3-3-3-3--|
A|--7-7-7-7-7-7-7-7-7-7-7-7-7-7-7-7-3-3-3-3-3-3-3-3--|
E|--5-5-5-5-5-5-5-5-5-5-5-5-5-5-5-5-x-x-x-x-x-x-x-x--|

solo:

e|-------------------------------------------------------------------------------------------|
B|------------------------5--13131313131212121212121212121212--------------------------------|
G|--------------------5-7----14141414141414141413131313141414--13b14-13b14-------------------|
D|--5-7-7-5-7-5-7-5-7-----------------------------------------------------14b15-14b15--------|
A|------------------------------------------------------------------------------------15-12--|
E|-------------------------------------------------------------------------------------------|
Outros vídeos desta música
    202 exibições
      • ½ Tom
      • A
      • Bb
      • B
      • C
      • Db
      • D
      • Eb
      • E
      • F
      • F#
      • G
      • Ab
    • Adicionar à lista

    Afinação da cifra

    Afinador online

      0 comentários

      Ver todos os comentários

      Entre para o Cifra Club PRO

      Tenha acesso a benefícios exclusivos no App e no Site

      • Chega de anúncios

      • Badges exclusivas

      • Mais recursos no app do Afinador

      • Atendimento Prioritário

      • Aumente seu limite de lista

      • Ajude a produzir mais conteúdo

      Cifra Club Pro

      Aproveite o Cifra Club com benefícios exclusivos e sem anúncios
      Cifra Club Pro
      Aproveite o Cifra Club com benefícios exclusivos e sem anúncios
      Ops (: Contenido disponible sólo en portugués.
      OK