Cifra Club

Je Suis Venu Te Dire Que Je Men Vais

Serge Gainsbourg

Cifra: Principal (violão e guitarra)
Selo Cifra Club: esta cifra foi revisada para atender aos critérios oficiais da nossa Equipe de Qualidade.
tom: A
   A                             C#m
E|-------------7---------| |-------------7----------|
B|-------5--------5-----5| |-------5--------5-----5-|
G|----6-----6--------6---| |----6-----6--------6----|
D|-----------------------| x2, |------------------------| x2
A|-0---------------------| |-4----------------------|
E|-----------------------| |------------------------|

   G#m7
E|-------------7----------|
B|-------4--------4-----4-|
G|----4-----4--------4----|
D|------------------------| x2
A|------------------------|
E|-4----------------------|

    D                       E
E|--------------5-----------------------7----------|
B|--------7--------7-----7--------9--------9-----9-|
G|-----7-----7--------7--------9-----9--------9----|
D|-------------------------------------------------|
A|--5-----------------------7----------------------|
E|-------------------------------------------------|

[Verse 1]
A                                C#m
Je suis venu te dire que je m'en vais
G#m                                 D     E
Et tes larmes n'y pourront rien changer
A                                     C#m
Comme dit si bien Verlaine au vent mauvais
G#m                              D      E
Je suis venu te dire que je m'en vais

[Bridge]
    C#m                            Bm
E|--------------7----------| |------------2----------|
B|--------5--------5-----5-| |------3--------3-----3-|
G|-----6-----6--------6----| |---4-----4--------4----|
D|-------------------------| x2, |-----------------------| x2
A|--4----------------------| |-2---------------------|
E|-------------------------| |-----------------------|

   C#m                            D                       E            Esus4
E|-------------7----------| |-------------2------------------------------|
B|-------5--------5-----5-| |-------3--------3-----3--------0------------|
G|----6-----6--------6----| |----2-----2--------2--------1-----1--1h2p1--|
D|------------------------| x2, |-0------------------------------------------|
A|-4----------------------| |--------------------------------------------|
E|------------------------| |-------------------------0------------------|

C#m                                   Bm
Tu t'souviens des jours anciens et tu pleures
C#m                          D                 E
Tu suffoques, tu blêmis à présent qu'a sonné l'heure

[Verse 2]
A
Des adieux à jamais (ouais)
C#m               G#m
Je suis au regret de te dire que je m'en vais
   D              E
Je t'aimais, oui, mais

A                                C#m
Je suis venu te dire que je m'en vais
G#m                                        D       E
  Tes sanglots longs n'y pourront rien changer
A                                     C#m
Comme dit si bien Verlaine au vent mauvais
G#m                              D      E
Je suis venu te dire que je m'en vais

[Bridge 2]
C#m                                   Bm
Tu t'souviens des jours heureux et tu pleures
C#m                      D                    E
Tu suffoques, tu gémis à présent qu'a sonné l'heure

[Verse 3]
A
Des adieux à jamais (ouais)
C#m                  G#m
   Je suis au regret de te dire que je m'en vais
       D           E
Car tu m'en a trop fait

A                                C#m
Je suis venu te dire que je m'en vais
G#m                                 D        E
Et tes larmes n'y pourront rien changer
A                                     C#m
Comme dit si bien Verlaine au vent mauvais
G#m                              D      E
Je suis venu te dire que je m'en vais

[Bridge 3]
C#m                                   Bm
Tu t'souviens des jours anciens et tu pleures
C#m                          D                 E
Tu suffoques, tu blêmis à présent qu'a sonné l'heure

[Verse 4]
A
Des adieux à jamais (ouais)
C#m               G#m
Je suis au regret de te dire que je m'en vais
   D              E
Je t'aimais, oui, mais
A                                C#m
Je suis venu te dire que je m'en vais
G#m                                 D      E
Et tes larmes n'y pourront rien changer
A                                     C#m
Comme dit si bien Verlaine au vent mauvais
G#m                              D      E
Je suis venu te dire que je m'en vais

[Bridge 4]
C#m                                   Bm
Tu t'souviens des jours anciens et tu pleures
C#m                          D                 E
Tu suffoques, tu blêmis à présent qu'a sonné l'heure

[Verse 5]
A
Des adieux à jamais (ouais)
C#m                  G#m
   Je suis au regret de te dire que je m'en vais
       D           E
Car tu m'en a trop fait


*************************

| x  Dead note
| h  Hammer-on
| p  Pull-off
Outros vídeos desta música
    118 exibições
      • ½ Tom
      • A
      • Bb
      • B
      • C
      • Db
      • D
      • Eb
      • E
      • F
      • F#
      • G
      • Ab
    • Adicionar à lista

    Afinação da cifra

    Afinador online

      0 comentários

      Ver todos os comentários

      Entre para o Cifra Club PRO

      Tenha acesso a benefícios exclusivos no App e no Site

      • Chega de anúncios

      • Badges exclusivas

      • Mais recursos no app do Afinador

      • Atendimento Prioritário

      • Aumente seu limite de lista

      • Ajude a produzir mais conteúdo

      Cifra Club Pro

      Aproveite o Cifra Club com benefícios exclusivos e sem anúncios
      Cifra Club Pro
      Aproveite o Cifra Club com benefícios exclusivos e sem anúncios
      OK