Cifra Club

Enamórate de Mí

Camilo Sesto

Cifra: Principal
exibições 525
Tom: A
Intro: 

e|-2-0-2-0--5--4-5-4---9--7-9-7----------- 
b|--------0---------5----------5-7--5-7-5- 
g|---------------------------------------- 
D|---------------------------------------- 
A|---------------------------------------- 
E|---------------------------------------- 

       E           E7+            A      Am   E 
Perdoname,si te ofendi,al pedirte si querias compartir 
     A     B           E 
tu cuerpo,cama junto a mi. 
       E             E7+           A      Am        
Antes de ti,mi vida fue,como un volcan apagado,como un 
     E                A      B           E 
gavilan atado,como un sueño que quiere vivir. 
CORO: 
     B                                    A        E 
    Escucha mi razon y abrete al amor,Enamorate de mi 
     B                              A         E 
    Deja que yo sea todo para ti,Enamorate de mi 
     A                                 E 
    Quiero ser ladron de tu corazon,Enamorate de mi 
     B                                    A         E 
    Estoy enamorado como un loco de ti,Enamorate de mi. 

Despues de ti,no mirare hacia atras.No habra un lugar, 

jamas,para nadie mas.Pero,por favor,enamorate de mi. 

CORO-Punteo_CORO- 

Siiiiiiii,Enamorate de mi/Siiiiii,Enamorate de mi 

Quiero ser ladron de tu corazon,Enamorate de mi 

Estoy enamorado como un loco de ti,Enamorate de mi.CORO 

 Punteo: 
e|-----------------7---------------------7,7-9-12-7/9---------- 
b-9(10)9----7-7(9)-10------10-9-10-10/12------------7-9-7----- 
g----------9---------9-----------------------------------9-8-9 
D9------9-9-----------9/10------------------------------------ 
A|------------------------------------------------------------- 
E|------------------------------------------------------------- 

10/12:pisando la cuerda en traste10.deslizar el dedo al 12 
9(10)9:Pisando traste 9,estira la cuerda(a la nota del 10)  
       y vuelve al 9. 
E7+:021100
Acordes para:
    Colaboração e revisão:
    • Sabrina Oliveira

    0 comentários

      mostrar mais comentários

      Conseguiu tocar?

      0tocaram0ainda não

      Grave um vídeo tocando Enamórate de Mí e mande pra gente!

      00:00 / 00:00
      outros vídeos desta música
      repetirqualidadeautomática
      Outro vídeos desta música
        00:00 / 00:00
        automática
        OK