Cifra Club

Talk To You Like That

Seven Mary Three

Cifra: Principal (violão e guitarra)
Selo Cifra Club: esta cifra foi revisada para atender aos critérios oficiais da nossa Equipe de Qualidade.
tom: E
  [Chords]
   E  A7 B7
E|----------|
B|-0--2--0--|
G|-1--0--2--|
D|-2--2--1--|
A|-2--0--2--|
E|-0--------|

picking pattern for E in 1st verse
   E
E|-----------------------------------------------------------------|
B|----2------0--------2------0--------2------0--------2------0-----|
G|------1------0h1------1------0h1------1------0h1------1------1p0-|
D|-2------2--------2------2--------2------2--------2------2--------|
A|-----------------------------------------------------------------|
E|-----------------------------------------------------------------|

picking pattern for A7 in 1st verse
   A7
E|-----------------------------------------------------------|
B|----2------2------2------2------2------2------2------2-----|
G|------0------0------0------0------0------0------0------0h1-|
D|-2------2------2------2------2------2------2------2--------|
A|-----------------------------------------------------------|
E|-----------------------------------------------------------|

picking pattern for 1st chorus
   B7                            A7
E|-----------------------------|-----------------------------|
B|-----------------------------|----2------2------2------2---|
G|----2------2------2------2---|------0------0------0------0-|
D|------1------1------1------1-|-2------2------2------2------|
A|-2------2------2------2------|-----------------------------|
E|-----------------------------|-----------------------------|

rhythm/lead combo for E on the 1st and 2nd break plus 2nd and 3rd verse
   E
E|-----------------------|
B|----2--0-2--0-2--0-----|
G|----1--1-1--1-1----1---|
D|----2--2-2--2-2------2-|
A|-2---------------------|
E|-0---------------------|

*********************************************************************
[Intro]
   E
E|-----------------------------------------------------------------|
B|----2------0--------2------0--------2------0--------2------0-----|
G|------1------0h1------1------0h1------1------0h1------1------1p0-|
D|-2------2--------2------2--------2------2--------2------2--------|
A|-----------------------------------------------------------------|
E|-----------------------------------------------------------------|
   A7
E|-----------------------------------------------------------|
B|----2------2------2------2------2------2------2------2-----|
G|------0------0------0------0------0------0------0------0h1-|
D|-2------2------2------2------2------2------2------2--------|
A|-----------------------------------------------------------|
E|-----------------------------------------------------------|

[Verse]
E                                  A7
 And I don't want you to break       arms around me. Whisper in my ear
E                           A7
 I don't want you to break    now or never is the end of fear

[Chorus]
B7                             A7
 Don't let me talk to you like that
B7                             A7
 Don't let me talk to you like that

[Break]
E  A7  E  A7

[Verse]
E                           A7
 There's patience on the street but I don't hear it
E                A7
 I turn to walk away but she won't have that
E               A7
 My ego gets confused because she's fearless
E                A7
 Stubbornly deflates before I  use it

[Chorus]
B7                             A7
 Don't let me talk to you like that.  Why do you yeah?
B7                             A7
 Don't let me talk to you like that.  Right through you yeah yeah

[Break]
E  A7  E  A7

[Verse]
E               A7
 Try to hail a cab outside the dinner.
E                             A7
 There's something like your face that's in the twilight
E                   A7
 Search for it in skies when I'm not with you
E                       A7
 Reminds me that I'm whole and that you're alright

[Chorus]
B7                             A7
 Don't let me talk to you like that.  Why do you yeah?
B7                             A7
 Don't let me talk to you like that.  Right through you yeah yeah

[Break]
E  A7  E  A7

[Verse]
E                          A7
 There's something in this heat that makes us listen
E                   A7
 It's the energy between us as we argue
E                A7
 Desperate and still and calmly waiting
E                     A7
 For someone to give in so we can make up

[Chorus]
B7                             A7
 Don't let me talk to you like that.  Why do you yeah?
B7                             A7
 Don't let me talk to you like that.
B7                             A7
 Don't let me talk to you like that.  Why do you yeah?
B7                             A7
 Don't let me talk to you like that.  Right through you yeah yeah

[Outro]
   E
E|-----------------------------------------------------------------|
B|----2------0--------2------0--------2------0--------2------0-----|
G|------1------0h1------1------0h1------1------0h1------1------1p0-|
D|-2------2--------2------2--------2------2--------2------2--------|
A|-----------------------------------------------------------------|
E|-----------------------------------------------------------------|
   A7                                                          E
E|-----------------------------------------------------------|-----|
B|----2------2------2------2------2------2------2------2-----|-----|
G|------0------0------0------0------0------0------0------0h1-|-----|
D|-2------2------2------2------2------2------2------2--------|-2---|
A|-----------------------------------------------------------|-----|
E|-----------------------------------------------------------|-----|
Outros vídeos desta música
    2 exibições
      • ½ Tom
      • A
      • Bb
      • B
      • C
      • Db
      • D
      • Eb
      • E
      • F
      • F#
      • G
      • Ab
    • Adicionar à lista

    Afinação da cifra

    Afinador online

      0 comentários

      Ver todos os comentários

      Entre para o Cifra Club PRO

      Tenha acesso a benefícios exclusivos no App e no Site

      • Chega de anúncios

      • Badges exclusivas

      • Mais recursos no app do Afinador

      • Atendimento Prioritário

      • Aumente seu limite de lista

      • Ajude a produzir mais conteúdo

      Cifra Club Pro

      Aproveite o Cifra Club com benefícios exclusivos e sem anúncios
      Cifra Club Pro
      Aproveite o Cifra Club com benefícios exclusivos e sem anúncios
      OK