Cifra Club

Throught the Valley (Versão Trailer The Last of Us 2)

Shawn James & The Shapeshifters

Cifra: Principal (violão e guitarra)
Selo Cifra Club: esta cifra foi revisada para atender aos critérios oficiais da nossa Equipe de Qualidade.
tom: E
G#m                       C#m
I walk through the valley of the shadow of death. 
G#m              D#7
I fear no evil because I'm blind to it all. 
G#m                     C#m
My mind and my gun they comfort me,
G#m                 D#7                  G#m
because I know I'll kill my enemies when they come.

G#m
Surely goodness and mercy will follow me
C#m
all the days of my life, 
G#m              D#7
and I will dwell on this earth forevermore.
G#m                                C#m
I walk beside the still waters and they restore my soul, 
G#m                     D#7                       G#m
but I can't walk on the path of the right because I'm wrong. 




Como tocar os acordes:
   G#m
E|-----------------------------------------|
B|--------------4--------------------------|
G|----------4------4-----------------------|
D|------6--------------6-------------------|
A|-----------------------------------------|
E|--4--------------------------------------|

   C#m
E|-----------------------------------------|
B|--------------5--------------------------|
G|----------6------6-----------------------|
D|------6--------------6-------------------|
A|--4--------------------------------------|
E|-----------------------------------------|

   D#7
E|-----------------------------------------|
B|--------------4--------------------------|
G|----------6------6-----------------------|
D|------5--------------5-------------------|
A|--6--------------------------------------|
E|-----------------------------------------|
Outros vídeos desta música
    11.804 exibições
      • ½ Tom
      • A
      • Bb
      • B
      • C
      • Db
      • D
      • Eb
      • E
      • F
      • F#
      • G
      • Ab
    • Adicionar à lista

    Afinação da cifra

    Afinador online

      0 comentários

      Ver todos os comentários

      Entre para o Cifra Club PRO

      Tenha acesso a benefícios exclusivos no App e no Site

      • Chega de anúncios

      • Badges exclusivas

      • Mais recursos no app do Afinador

      • Atendimento Prioritário

      • Aumente seu limite de lista

      • Ajude a produzir mais conteúdo

      Cifra Club Pro

      Aproveite o Cifra Club com benefícios exclusivos e sem anúncios
      Cifra Club Pro
      Aproveite o Cifra Club com benefícios exclusivos e sem anúncios
      Ops (: Contenido disponible sólo en portugués.
      OK