Cifra Club

Voices Within

Sirenia

Cifra: Principal (violão e guitarra)
Selo Cifra Club: esta cifra foi revisada para atender aos critérios oficiais da nossa Equipe de Qualidade.
tom: E
Tuning: EADGBe
                                     
E||-------|-------|-------|-------|-------------------------|
B||-------|-------|-------|-------|-------------------------|
G||-------|-------|-------|-------|-------------------------|
D||-------|-------|-------|-------|-------------------------|
A||-------|-------|-------|-------|--2----------------------|
E||-------|-------|-------|-------|--0----------------------|

              
--------------------------|-------------------|
--------------------------|-------------------|
--------------------------|-------------------|
--------------------------|--5----------------|
--2-----2-----2--2--------|--3----------------|
--0-----0-----0--0--------|-------------------|

--------------------------------------------------------------------------|
--------------------------------------------------------------------------|
--17-16-15-14-13-12-11-10-9-8-7-6-5-4-3-2-1-------------------------------|
--17-16-15-14-13-12-11-10-9-8-7-6-5-4-3-2-1-5-4-3-2-1-0-1-----------------|
--------------------------------------------5-4-3-2-1-0-1-8-7-6-5-4-3-2-1-|
----------------------------------------------------------8-7-6-5-4-3-2-1-|

           
-------------------|--------------------|-------------------|
-------------------|--------------------|-------------------|
-------------------|--------------------|-------------------|
--9----------------|--9------------4----|--5----------------|
--7----------------|--7------------2----|--3----------------|
-------------------|--------------------|-------------------|

  
-------------------|-------------------|--------------------|
-------------------|-------------------|--------------------|
-------------------|-------------------|--------------------|
--L----------------|--9----------------|--9------------4----|
--L----------------|--7----------------|--7------------2----|
-------------------|-------------------|--------------------|

           
-------------------|-------------------|-------------------|-------------------|
-------------------|-------------------|-------------------|-------------------|
-------------------|-------------------|-------------------|-------------------|
--5----------------|--L----------------|-------------------|--9----------------|
--3----------------|--L----------------|-------------------|--7----------------|
-------------------|-------------------|-------------------|-------------------|

            
-------------------|-------------------|-------------------|-------------------|
-------------------|-------------------|-------------------|-------------------|
-------------------|-------------------|-------------------|-------------------|
--L----------------|--7----------------|--5----------------|--9----------------|
--L----------------|--5----------------|--3----------------|--7----------------|
-------------------|-------------------|-------------------|-------------------|

         
-------------------|-------------------|-------------------|
-------------------|-------------------|-------------------|
-------------------|-------------------|-------------------|
--L----------------|--7----------------|--5----------------|
--L----------------|--5----------------|--3----------------|
-------------------|-------------------|-------------------|

--------------------------|--------------------------|
--------------------------|--------------------------|
--------------------------|--------------------------|
--2--2--2--2--2--2--2--2--|--2--2--2--2--2--7--7--7--|
--2--2--2--2--2--2--2--2--|--2--2--2--2--2--5--5--5--|
--0--0--0--0--0--0--0--0--|--0--0--0--0--0-----------|
  .  .  .  .  .  .  .  .     .  .  .  .  .
 
--------------------------|--------------------------|
--------------------------|--------------------------|
--------------------------|--------------------------|
--2--2--2--2--2--2--2--2--|--2--2--2--2--2--7--7--7--|
--2--2--2--2--2--2--2--2--|--2--2--2--2--2--5--5--5--|
--0--0--0--0--0--0--0--0--|--0--0--0--0--0-----------|
  .  .  .  .  .  .  .  .     .  .  .  .  .

   
--------------------------|--------------------------|
--------------------------|--------------------------|
--5--5--5--5--5--5--5--5--|--5--5--5--5--5--4--4--4--|
--5--5--5--5--5--5--5--5--|--5--5--5--5--5--4--4--4--|
--3--3--3--3--3--3--3--3--|--3--3--3--3--3--2--2--2--|
--------------------------|--------------------------|
  .  .  .  .  .  .  .  .     .  .  .  .  .  

  
--------------------------|--------------------------|
--------------------------|--------------------------|
--2--2--2--2--2--2--2--2--|--------------------------|
--2--2--2--2--2--2--2--2--|--5--L-----4--L--x--5--L--|
--0--0--0--0--0--0--0--0--|--5--L-----4--L--x--5--L--|
--------------------------|--3--L-----2--L--x--3--L--|

  PM PM PM PM PM PM PM PM    PM PM PM PM PM           
  E  E  E  E  E  E  E  E     E  E  E  E  E  E  E  E   
--------------------------|--------------------------|
--------------------------|--------------------------|
--------------------------|--------------------------|
--2--2--2--2--2--2--2--2--|--2--2--2--2--2--7--7--7--|
--2--2--2--2--2--2--2--2--|--2--2--2--2--2--5--5--5--|
--0--0--0--0--0--0--0--0--|--0--0--0--0--0-----------|

  PM PM PM PM PM PM PM PM    PM PM PM PM PM           
  E  E  E  E  E  E  E  E     E  E  E  E  E  E  E  E   
--------------------------|--------------------------|
--------------------------|--------------------------|
--------------------------|--------------------------|
--2--2--2--2--2--2--2--2--|--2--2--2--2--2--7--7--7--|
--2--2--2--2--2--2--2--2--|--2--2--2--2--2--5--5--5--|
--0--0--0--0--0--0--0--0--|--0--0--0--0--0-----------|

  E  E  E  E  E  E  E  E     E  E  E  E  E  E  E  E   
--------------------------|--------------------------|
--------------------------|--------------------------|
--5--5--5--5--5--5--5--5--|--5--5--5--5--5--4--4--4--|
--5--5--5--5--5--5--5--5--|--5--5--5--5--5--4--4--4--|
--3--3--3--3--3--3--3--3--|--3--3--3--3--3--2--2--2--|
--------------------------|--------------------------|

  E  E  E  E  E  E  E  E     E  E  E  E  E  E  E  E     W                 
--------------------------|--------------------------|-------------------|
--------------------------|--------------------------|-------------------|
--2--2--2--2--2--2--2--2--|--------------------------|--9----------------|
--2--2--2--2--2--2--2--2--|--5--L-----4--L--x--5--L--|--9----------------|
--0--0--0--0--0--0--0--0--|--5--L-----4--L--x--5--L--|--7----------------|
--------------------------|--3--L-----2--L--x--3--L--|-------------------|

  W                   W                   H        E  E  E  E   
-------------------|-------------------|-----------------------|
-------------------|-------------------|-----------------------|
--7----------------|--7----------------|--5--------5--7--------|
--7----------------|--7----------------|--5--------5--7--------|
--5----------------|--5----------------|--3--------3--5--------|
-------------------|-------------------|-----------------------|

  W                   W                   W                 
-------------------|-------------------|-------------------|
-------------------|-------------------|-------------------|
--9----------------|--7----------------|--7----------------|
--9----------------|--7----------------|--7----------------|
--7----------------|--5----------------|--5----------------|
-------------------|-------------------|-------------------|

  H        E  E  E  E     E  E  E  E  E  E  E  E                           
-----------------------|--------------------------|-----|-----|-----|-----|
-----------------------|--------------------------|-----|-----|-----|-----|
--5--------5--4--------|--2-----------------------|-----|-----|-----|-----|
--5--------5--4--------|--2-----------------------|-----|-----|-----|-----|
--3--------3--2--------|--0-----------------------|-----|-----|-----|-----|
-----------------------|--------------------------|-----|-----|-----|-----|

                    H        Q    Q       Q    Q    T. T. S S. Q     
-----|-----|-----|---------------------|----------------------------|
-----|-----|-----|---------------------|----------------------------|
-----|-----|-----|-----------4----5----|--5---------5--7--5-L-------|
-----|-----|-----|---------------------|-------7--------------------|
-----|-----|-----|--7------------------|-----------------------7----|
-----|-----|-----|---------------------|----------------------------|

  W                                       Q    Q    Q    Q     
-------------------|-------------------|----------------------|
-------------------|-------------------|----------------------|
--4----------------|-------------------|-------2---------2----|
-------------------|-------------------|----------------------|
-------------------|-------------------|----------------------|
-------------------|-------------------|----------------------|

                      Q    Q    E.  S S S E     W                 
-------------------|-------------------------|-------------------|
-------------------|-------------------------|-------------------|
-------------------|-------5----------5-4-2--|--4----------------|
-------------------|-------------------------|-------------------|
-------------------|-------------------------|-------------------|
-------------------|-------------------------|-------------------|


  H        Q    Q
Outros vídeos desta música
    881 exibições
      • ½ Tom
      • A
      • Bb
      • B
      • C
      • Db
      • D
      • Eb
      • E
      • F
      • F#
      • G
      • Ab
    • Adicionar à lista

    Afinação da cifra

    Afinador online

      0 comentários

      Ver todos os comentários

      Entre para o Cifra Club PRO

      Tenha acesso a benefícios exclusivos no App e no Site

      • Chega de anúncios

      • Mais recursos no app do Afinador

      • Atendimento Prioritário

      • Aumente seu limite de lista

      • Ajude a produzir mais conteúdo

      Cifra Club Pro

      Aproveite o Cifra Club com benefícios exclusivos e sem anúncios
      Cifra Club Pro
      Aproveite o Cifra Club com benefícios exclusivos e sem anúncios
      OK