Cifra Club

Aprenda

Die Motherfucker Die

Six Feet Under

Cifra: Principal (violão e guitarra)
tom: G
Tabbed by: Tias
Email: Send a message or something

Tuning: Drop C, but also can be played in C standard (but then everthing 2 frets higher except the low C).

.  palm mute
~~ let note ring


Part 1
D|--------------------------------------------------|
A|--------------------------------------------------|
F|--------------------------------------------------|
C|--------------------------------------------------|
G|--------------3-3-3-3-3-3--4-4-4-4-4--------------|
C|-3-3-3-3-3-3--------------------------5-5-5-5-5-5-|

Part 2
D|----------------------------------------------------|
A|----------------------------------------------------|
F|----------------------------------------------------|
C|-5~~----------8~~----------6~~----------9~~---------|
G|-5~~----------8~~----------6~~----------9~~---------|
C|-5~~----------8~~----------6~~----------9~~---------|

Part 3 
D|----------------------------------------------------|
A|----------------------------------------------------|
F|----------------------------------------------------|
C|----------------------------------------------------|
G|-1-0----------4-3----------6-5----------4-3---------|
C|-1-0-0-0-0-0--4-3-0-0-0-0--6-5-0-0-0-0--4-3-0-0-0-0-|
       . . . .      . . . .      . . . .      . . . .

Part 4.1
D|---------------------------------------------------|
A|---------------------------------------------------|
F|---------------------------------------------------|
C|---------------------------------------------------|
G|-1-0----------------------1-0----------4-3---------|
C|-1-0-0-0-0-0-0-0-0-0-0-0--1-0-0-0-0-0--4-3-0-0-0-0-|
       . . . . . . . . . .      . . . .      . . . .

Part 4.2
D|---------------------------------------------------|
A|---------------------------------------------------|
F|---------------------------------------------------|
C|---------------------------------------------------|
G|-1-0----------------------1-0----------6-5---------|
C|-1-0-0-0-0-0-0-0-0-0-0-0--1-0-0-0-0-0--6-5-0-0-0-0-|
       . . . . . . . . . .      . . . .      . . . .

Part 5
D|-----------------------|
A|-----------------------|
F|-----------------------|
C|-5---7---3---5---3---2-|
G|-5---7---3---5---3---2-|
C|-5---7---3---5---3---2-|
   .   .   .   .   . 
Part 6.1
D|-------------------------------------------------------|
A|-------------------------------------------------------|
F|-------------------------------------------------------|
C|--------------------------------------------------0--1-| 4x
G|--------------------------------------------------0--1-|
C|-2-2-2-2-2-2-2-5-2-2-2-2-2-2-2-5-2-2-2-2-2-2-2-5--0--1-|
   . . . . . . . . . . . . . . . . . . . . . . . .     

Part 6.2
D|-------------------------------------------------------|
A|-------------------------------------------------------|
F|-------------------------------------------------------|
C|--------------------------------------------------2--4-| 2x
G|--------------------------------------------------2--4-|
C|-4-4-4-4-4-4-4-7-4-4-4-4-4-4-4-7-4-4-4-4-4-4-4-7--2--4-|
   . . . . . . . . . . . . . . . . . . . . . . . .     

Then 2x part 6.1

srry no solo. 

In the and play 4.1 and 4.2 without the muted C.
That’s all repeat some stuff and your finished.

1.101 exibições
    • ½ Tom
    • A
    • Bb
    • B
    • C
    • Db
    • D
    • Eb
    • E
    • F
    • F#
    • G
    • Ab
  • Adicionar à lista

    0 comentários

    Ver todos os comentários

    Conseguiu tocar?

    0 Tocaram 0 Ainda não

    Grave um vídeo tocando Die Motherfucker Die e nos envie!

    00:00 / 00:00
    outros vídeos desta música
    repetir qualidade Automático
    Outros vídeos desta música
    00:00 / 00:00
    Automático

    Cifra Club Pro

    Aproveite o Cifra Club com benefícios exclusivos e sem anúncios
    Cifra Club Pro
    Aproveite o Cifra Club com benefícios exclusivos e sem anúncios
    OK