Cifra Club

First Of The Year Equinox

Skrillex

Cifra: Principal (violão e guitarra)
Selo Cifra Club: esta cifra foi revisada para atender aos critérios oficiais da nossa Equipe de Qualidade.
tom: G
E|E|-----------------------------------------------------------------------||
               SKRILLEX - FIRST OF THE YEAR (EQUINOX)
E|E|-----------------------------------------------------------------------||

tabbed by: Hans Lindig

This masterpiece was written in a swinging eighth rhythm, so two eights after another mean a quarter and
an eighth within a triplet. The same goes for all other combinations like eighth - quarter - eighth and
so on.

You will need an 8-string guitar for the first part and tune it a half-step down. For the other parts, a
6-string is also OK. The tuning is again Eb standard, although it is possible to play in E standard. But I
wanted all guitars to have the same tuning, otherwise it's a bit confusing (especially for me when I tab
the song).

I hope you enjoy the tab and don't forget to rate and/or comment!


MAIN RIFF

Guitar 1
    Q  H     E E   Q  Q     E E   Q  Q     E E   Q  Q  E E E E
E|--------------|--------------|--------------|---------------|
B|--------------|--------------|--------------|---------------|
G|-6--6-----6(-)|-6--6-----6(-)|-6--6-----6(-)|-6--6--6(-)6(-)|
D|-7--7-----7(-)|-7--7-----7(-)|-7--7-----7(-)|-7--7--7(-)7(-)|
A|-9--9-----9p7-|-9--9-----9p7-|-9--9-----9p7-|-9--9--9p7-9p7-|
E|--------------|--------------|--------------|---------------|

                                                          |-3-|
    Q  H     E E   Q  Q     E E   Q  Q     E E   Q  Q.   E E Q
E|--------------|--------------|--------------|---------------|
B|--------------|--------------|--------------|---------------|
G|-6--6-----6(-)|-6--6-----6(-)|-7--7-----7(-)|-7--7----7-7-7-|
D|-7--7-----7(-)|-7--7-----7(-)|-7--7-----7(-)|-9--9----9-9-9-|
A|-9--9-----9p7-|-9--9-----9p7-|-9--9-----9p7-|-9--9----9-9-9-|
E|--------------|--------------|--------------|---------------|

Guitar 2
    Q  Q  Q  E E   Q  Q  Q  E E   Q  Q  Q  E E   Q  Q  E E E E
E|--------------|--------------|--------------|---------------|
B|--------------|--------------|--------------|---------------|
G|--------------|--------------|--------------|---------------|
D|--------------|--------------|--------------|---------------|
A|--------------|--------------|--------------|---------------|
E|-2--2--2--2-0-|-2--2--2--2p0-|-2--2--2--2p0-|-2--2--2p0-2p0-|
E|--------------|--------------|--------------|---------------|
B|--------------|--------------|--------------|---------------|

    Q  Q  Q  E E   Q  Q  Q  E E   Q  Q  Q  E E   Q  Q  Q  E E
E|--------------|--------------|--------------|--------------|
B|--------------|--------------|--------------|--------------|
G|--------------|--------------|--------------|--------------|
D|--------------|--------------|--------------|--------------|
A|--------------|--------------|--------------|--------------|
E|-2--2--2--2-0-|-2--2--2--2p0-|--------------|--------------|
E|--------------|--------------|-3--3--3--3p5-|-0--0--0--0-0-|
B|--------------|--------------|--------------|--------------|


[Verse]

Guitar 1

1st time:
E|---3---|
    E  E  Q   Q.    E    Q   E  E  E  Q.    S  S
E|--------------------|--------------------------|
B|-----------14----12-|-14--14-14-14-14----12-10-|
G|-11-11-11-----------|--------------------------|
D|--------------------|--------------------------|
A|--------------------|--------------------------|
E|--------------------|--------------------------|

2nd time:
    E|---3---|
    E  E  Q   Q.    E    E  Q.   E  E  E  E  E
E|--------------------|-------------------12-14-|
B|-----------14----12-|-14-14----14-14-14-------|
G|-11-11-11-----------|-------------------------|
D|--------------------|-------------------------|
A|--------------------|-------------------------|
E|--------------------|-------------------------|

                  E|---3---|
1st time: E  E  Q   Q.    E    E  Q   E  E  E  E  E  E

E|---3----| |---3---|
2nd time: E  E  Q   Q.    E    Q  Q   Q  E  E  E  E  E
E|--------------------|--------------------------|
B|-----------14----12-|-14-14--14----------------|
G|-11-11-11-----------|-----------14-13h14-14----|
D|--------------------|-----------------------14-|
A|--------------------|--------------------------|
E|--------------------|--------------------------|

both times:
 E|---3---|
    E  E  Q   E  E  Q     Q   E  E  E  Q.    E
E|---------------------|-----------12-------14-|
B|-----------14----14--|-----14h15----14-------|
G|-11-11-11------------|-----------------------|
D|---------------------| (11)-------------------|
A|---------------------|-----------------------|
E|---------------------|-----------------------|

    Q   E  H           E    Q   E  Q   E  Q
E|-----12-12-------------|-12--14------------|
B|-14-----------------14-|--------14--12-10--|
G|-----------------------|-------------------|
D|-----------------------|-------------------|
A|-----------------------|-------------------|
E|-----------------------|-------------------|

Guitar 2
    Q  Q  Q  E E   Q  Q  Q  E E   Q  Q  Q  E E   Q  E E E E E E
E|--------------|--------------|--------------|----------------|
B|----2-----2(-)|----2-----2(-)|----2-----2(-)|----2---2(-)2-2-|
G|----2-----2(-)|----2-----2(-)|----2-----2(-)|----2---2(-)2-2-|
D|----4-----4p2-|----4-----4p2-|----4-----4p2-|----4---4p2-4p2-|
A|-------4--4(-)|-------4--4(-)|-------4--4(-)|------4(-)4(-)--|
E|-2--------2(-)|-2--------2(-)|-2--------2(-)|-2--------------|
E|--------------|--------------|--------------|----------------|
B|--------------|--------------|--------------|----------------|

                                                          |-3-|
    Q  Q  Q  E E   Q  Q  Q  E E   Q  Q  Q  E E   Q  Q  E E E Q
E|--------------|--------------|------------0-|----------------|
B|----2-----2(-)|----2-----2(-)|----3-----3(-)|----3----3-3-3--|
G|----2-----2(-)|----2-----2(-)|----2-----2(-)|----4----4-4-4--|
D|----4-----4p2-|----4-----4p2-|----4-----4(-)|----4----4-4-4--|
A|-------4--4(-)|-------4--4(-)|-------0------|-------2-0h2(-)-|
E|-2--------2(-)|-2--------2(-)|--------------|----------------|
E|--------------|--------------|-3------------|-0--------------|
B|--------------|--------------|--------------|----------------|

Guitar 3
    W              H      H       W              W
E|--------------|--------------|--------------|--------------|
B|^10-----------| (-)----^9-----|--------------|--------------|
G|^11-----------| (-)----^9-----|^11-----------|(-)-----------|
D|^11-----------| (-)----^11----|^11-----------|(-)-----------|
A|--------------|--------------| ^12-----------|(-)-----------|
E|--------------|--------------|--------------|--------------|

    W              H      H       W              W
E|^9------------| (-)----^7-----|^10-----------|(-)-----------|
B|^10-----------| (-)----^8-----|^10-----------|(-)-----------|
G|^9------------| (-)----^7-----|^11-----------|(-)-----------|
D|--------------|--------------|--------------|--------------|
A|--------------|--------------|--------------|--------------|
E|--------------|--------------|--------------|--------------|

PIANO BDA KC WN

Guitar 1
    E  E  Q   Q   E   E   Q   Q   Q.    E
E|---------------------|------------------|
B|-----------14--14-12-|-14--14--14----12-|
G|-11-11-11------------|------------------|
D|---------------------|------------------|
A|---------------------|------------------|
E|---------------------|------------------|

                                                                                                         
             E|---3---|
    E  E  Q   Q   E   E   Q   E  E  E  E  E  E  E
E|---------------------|--------------------------|
B|-----------14--14-12-|-14--14-14----------------|
G|-11-11-11------------|-----------14-13h14-14----|
D|---------------------|-----------------------14-|
A|---------------------|--------------------------|
E|---------------------|--------------------------|

E|---3---|      |--3--|
    E  E  Q   Q   Q      Q   E  E  E  E  E  E  Q
E|---------------14---|-12--------12----------14--|
B|-----------14-------|-----14h15----14-14-14-----|
G|-11-11-11-----------|---------------------------|
D|--------------------|---------------------------|
A|--------------------|---------------------------|
E|--------------------|---------------------------|

E|----3----|
    Q   E  H           E    Q   Q   Q   Q   Q
E|-----12-12-------------|-12--14--------------|
B|-14-----------------14-|---------14--12--10--|
G|-----------------------|---------------------|
D|-----------------------|---------------------|
A|-----------------------|---------------------|
E|-----------------------|---------------------|

Guitar 2
                                               |-3-|
    W            W   W   W   H    Q  Q    H.    E Q    W           W
E|^2----------| (-)|(-)|(-)|------------|------------|-----------|-----------|
B|^2----------| (-)|(-)|(-)|------------|------------|-----------|-7---------|
G|^2----------| (-)|(-)|(-)|------9--7--|-6----(-)7--|-6---------|-----------|
D|^4----------| (-)|(-)|(-)|------------|------------|-----------|-----------|
A|^4----------| (-)|(-)|(-)|------------|------------|-----------|-----------|
E|^2----------| (-)|(-)|(-)|------------|------------|-----------|-----------|
E|------------|---|---|---|------------|------------|-----------|-----------|
B|------------|---|---|---|------------|------------|-----------|-----------|

Guitar 3
    W            W   W   W   W   W   W   W
E|^9----------| (-)|(-)|(-)|(-)|(-)|(-)|(-)|
B|^10---------| (-)|(-)|(-)|(-)|(-)|(-)|(-)|
G|^11---------| (-)|(-)|(-)|(-)|(-)|(-)|(-)|
D|^11---------| (-)|(-)|(-)|(-)|(-)|(-)|(-)|
A|------------|---|---|---|---|---|---|---|
E|------------|---|---|---|---|---|---|---|

BUILD-UP

Guitar 1
E|---3---|
    E  E  Q   Q.    E    Q   E  E  E  Q.    S  S
E|--------------------|--------------------------|
B|-----------14----12-|-14--14-14-14-14----12-10-|
G|-11-11-11-----------|--------------------------|
D|--------------------|--------------------------|
A|--------------------|--------------------------|
E|--------------------|--------------------------|

            E|---3---|
    E  E  Q   Q.    E    E  Q   E  E  E  E  E  E
E|--------------------|--------------------------|
B|-----------14----12-|-14-14--14----------------|
G|-11-11-11-----------|-----------14-13h14-14----|
D|--------------------|-----------------------14-|
A|--------------------|--------------------------|
E|--------------------|--------------------------|

E|---3---|      |--3--|
    E  E  Q   Q   Q      Q   E  E  E  E  E  E  Q
E|---------------14---|-12--------12----------14--|
B|-----------14-------|-----14h15----14-14-14-----|
G|-11-11-11-----------|---------------------------|
D|--------------------|---------------------------|
A|--------------------|---------------------------|
E|--------------------|---------------------------|

    Q   E  H           E
E|-----12-12-------------|---------------------|
B|-14-----------------14-|--~Ca| ll~-------------|
G|-----------------------|-------~911~---------|
D|-----------------------|-----------~| now!!!~--|
A|-----------------------|---------------------|
E|-----------------------|---------------------|


Guitar 2
E|--3--| |--3--|   |--3--|
    E E E E  Q.   E   E E E E E Q  E E   E E E E  Q.   E   E E E E E E E E E E
E|-----------------|------------------|-----------------|---------------------|
B|-----------------|------------------|-----------------|---------------------|
G|-----------------|------------------|-----------------|---------------------|
D|-----------------|------------------|-----------------|---------------------|
A|-----------------|------------------|-----------------|---------------------|
E|-5---------------|------------------|-5---------------|---------------------|
E|---7-7----7p===5-|-7---7-7-7-7--7-7-|---7-7----7p===5-|-7---7-7-7-7---------|
B|-3-0-0----0------|-0---------0--0(0)|-3-0-0----0------|-0-0-------0-0-0-0-0-|
                          * *                                * * *     *

E|--3--|
    E E E E  Q.   E   E E E E E Q  E E   Q   E Q  E E E E
E|-----------------|------------------|------------------|-------------------|
B|-----------------|------------------|------------------|-------------------|
G|-----------------|------------------|------------------|-~Ca| ll~------------|
D|-----------------|------------------|------------------|------~911~--------|
A|-----------------|------------------|------------------|----------~Now| !!!~-|
E|-5---------------|------------------|------------------|-------------------|
E|---7-7----7p===5-|-7---7-7-7-7--7-7-|-7----------------|-------------------|
B|-3-0-0----0------|-0---------0--0(0)|-0--/5-5--5-5-5-5-|-------------------|
                          * *


DROP
This isn't exactly the drop as in the original song, I mixed it up with how I play it on piano. On guitar,
there are of course more ways to create a really dubstep sound.


SECTION 1

Guitar 1
E|---3---| |---3---|
    Q.   E Q   E  E  E    Q   E  E  E  H
E|------9/14-----------|-14-----------14b15r14\-|
B|---------------------|------------------------|
G|------------11-11-11-|-----11-11-11-----------|
D|---------------------|------------------------|
A|---------------------|------------------------|
E|---------------------|------------------------|

E|---3---| |---3---|
    Q.   E Q   E  E  E    Q   E  E  Q   E  E  E
E|------9/14-----------|-14//15----15--15-16b17-|
B|---------------------|------------------------|
G|------------11-11-11-|------------------------|
D|---------------------|------------------------|
A|---------------------|------------------------|
E|---------------------|------------------------|

E|---3---| |--------6-------|
      Q      E  E Q   E  E  E    E  E  E  E  E  E  H    
E|-pb15r14-----9/14--14-14-14-|-14-14-14-14-14-14--------|
B|----------------------------|--------------------------|
G|----------11----------------|-------------------11~~~~-|
D|----------------------------|--------------------------|
A|----------------------------|--------------------------|
E|----------------------------|--------------------------|

E|---3---|
     Q    Q    Q    E  E  E    E  Q.   E  E  E  E
E|-/20--\14--------14-14-14-|-14------------------|
B|-/x---\x------------------|-x-------------14----|
G|-/18--\11--(11)-----------|-11------11-14----14-|
D|--------------------------|---------------------|
A|--------------------------|---------------------|
E|--------------------------|---------------------|
                                      \only the 1st/
                                       \   time   /

Guitar 2
E|--3--| |-----6-----|                          |-----6-----|
    E E Q  Q  E E E   Q  E E E E E E Q    E E E E Q  E E E   Q  E E E E E E Q
E|-----------------|-------------------|------------------|-------------------|
B|-----------------|-------------------|------------------|-------------------|
G|-----------------|-------------------|------------------|-------------------|
D|-----------------|-------------------|------------------|-------------------|
A|-----------------|-------------------|------------------|-------------------|
E|-2---2--2--------|-2------------2-3--|-2---2---3--------|-4--------------5--|
E|-2---2--2--2-2-2-|-2--2-2-2-2-2-2-3--|-2---2---3--3-3-3-|-4--4-4-4-2-3-4-5--|
B|-0---0--0--0-0-0-|-0--0-0-0-0-0-0-1--|-0---0---1--1-1-1-|-2--2-2-2-0-1-2-3--|
              * * *      * * * *                     * * *      * * 

              |--3--|      E|--3--|
    Q  Q    Q  E E E   E E E E E E Q  Q     Q  Q  Q  E E E   E E E E E E E E
E|------------------|----------------4--|-----------------|-----------------|
B|------------------|----------------6--|-----------------|-----------------|
G|------------------|----------------5--|-----------------|-----------------|
D|------------------|-------------------|-----------------|-----------------|
A|------------------|-------------------|-----------------|-----------------|
E|------------------|-------------------|-/9--------------|-2---2-----------|
E|-7-------7--7-7-7-|-7-7-7-7-7-7-------|-/x--7-(-)-------|-2---2-----------|
B|-0--7\0--0--------|-------------0-(-)-|-/7--0-(0)-2-3-2-|-0---0---0-3-7-3-|
                                                     * * *         \ only the /
                                                                    \1st time/

SECTION 2:

Guitar 1:
E|-------3-------|
    E E Q  H       H     Q   Q    E Q  E Q   E E   Q  Q  Q       E     E     E
E|--------------|--------------|----------------|-------------------------------|
B|--------------|--------------|----------------|-------------------------------|
G|--------------|--------------|----------------|-------------------------------|
D|--------------|--------------|----------------|-------------------------------|
A|--------------|--------------|----------------|-------------------------------|
E|-2(-)2--------|--------------|-2-2------------|-2-----6b6.5-pb6.5-pb6.5-pb6.5-|
E|-2(-)2--------|--------------|-2-2--x---------|-2--2--x-------x-----x-----x---|
B|-3p1-0--------|-------0--/6--|-0-0--x-0--(x)0-|-0--0--4b4.5-pb4.5-pb4.5-pb4.5-|
                                               *      *

        E|--3--|       |--3--|
    E E Q  H       H     Q   Q    E E E  E E Q  E E E   E E E E E E E E
E|--------------|--------------|---------------------|-----------------|
B|--------------|--------------|---------------------|-----------------|
G|--------------|--------------|---------------------|-----------------|
D|--------------|--------------|---------------------|-----------------|
A|--------------|--------------|---------------------|-----------------|
E|-2(-)2--------|--------------|---------------------|-2---2-----------|
E|-2(-)2--------|--------------|-2-2-2------7--7-7-7-|-2---2-----------|
B|-3p1-0--------|------/6---6--|-0-0-0--x-0----------|-3p1-0---0-3-7-3-|
                                  * * *    *    * *

Guitar 2:
    H    Q    E  E  E   E  E  E  E E   E  Q    Q
E|-------------------|---------h9t14--------------|
B|-------------------| t14p10p7-------h10-----/13--|
G|------11~-t14t11p6-|----------------------------|
D|-------------------|-------------------10-------|
A|-------------------|----------------------------|
E|-------------------|----------------------------|

E|-------3-------|
    E Q.    Q   E E   Q   Q   Q        E      E      E
E|-----------------| /19---------------18b18.5-pb18.5-pb18.5-|
B|-----------------| /X-------19b19.5-----x------x------x----|
G|---11----11--x(x)| /16------x--------15b15.5-pb15.5-pb15.5-|
D|---x-----x---x(x)|-----16--16b16.5------------------------|
A|---9-----9---x(x)|----------------------------------------|
E|-----------------|----------------------------------------|

    H    Q    E  E  E   E  E  E  E E   E  Q    Q
E|-------------------|---------h9t14--------------|
B|-------------------| t14p10p7-------h10----------|
G|------11~-t14t11p6-|----------------------------|
D|-------------------|-------------------10-------|
A|-------------------|----------------------------|
E|-------------------|----------------------------|

E|--------6-------| |---3---|
    E  E  E  E  E  E   Q   E  E  E    E  Q.   E  E  E  E
E|-------------------/21--21-21-21-|---------------------|
B|---------------------------------|-19------------14----|
G|-11-11-11-11-11-11---------------|-x-------11-14----14-|
D|---------------------------------|-16------------------|
A|---------------------------------|---------------------|
E|---------------------------------|---------------------|

Guitar 3:
         E|---3---|  |--------6-------|
    W   W   W   W     Q      E  E Q   E  E  E    E  E  E  E  E  E  H     W   W
E|(-)| (-)|(-)|(-)|-pb15r14-----9/14--14-14-14-|-14-14-14-14-14-14-----|(-)|(-)|
B|(-)| (-)|(-)|(-)|----------------------------|-----------------------|(-)|(-)|
G|(-)| (-)|(-)|(-)|----------11----------------|-------------------11~-|(-)|(-)|
D|(-)| (-)|(-)|(-)|----------------------------|-----------------------|(-)|(-)|
A|---|---|---|---|----------------------------|-----------------------|---|---|
E|---|---|---|---|----------------------------|-----------------------|---|---|


FINAL VERSE

Guitar 1: just as in first verse

Guitar 2:
E|--3--|    E|--3--|   |--3--|
    E E E E  Q.   E   E E E E E H       E E E E  Q.   E   E E E E E E E E E E
E|-----------------|-----------------|-----------------|---------------------|
B|-----------------|-----------------|-----------------|---------------------|
G|-----------------|-----------------|-----------------|---------------------|
D|-----------------|-----------------|-----------------|---------------------|
A|-----------------|-----------------|-----------------|---------------------|
E|-5---------------|-----------------|-5---------------|---------------------|
E|---7-7----7p===5-|-7---7-7-7-7\----|---7-7----7p===5-|-7---7-7-7-7---------|
B|-3-0-0----0------|-0---------0-----|-3-0-0----0------|-0-0-------0-0-0-0-0-|
                          * *                               * * *     *

                             E|---3---|
    E E E E  E E Q    E E Q  H      E E Q   Q.  E   Q  Q  Q  Q  Q
E|-----------------|-------------|---------------|----------------|
B|-----------------|-------------|---------------|----------------|
G|-----------------|-------------|---------------|----------------|
D|-----------------|-------------|---------------|----------------|
A|-----------------|-------------|---------------|----------------|
E|-5---------------|-------------|---------------|-7--7--7--7--7--|
E|---7-7----7---7--|-7---7\------|-7-------------|-0--0--0--------|
B|-3-0-0-----------|-0------1~~~-|-0---7---7---7-|----------------|
                                        *                 *  *  *

Guitar 3: as during the second half of the first verse


SONG STRUCTUD 

   Main riff
2x Verse (1st time without, 2nd time with guitar 3)
   Piano breakdown
   Build-up
  "¡¡¡CALL 911 NOW!!!"
2x Drop Section 1
2x Drop Section 2
   Piano breakdown
   Build-up
  "¡¡¡CALL 911 NOW!!!"
2x Drop Section 1
2x Drop Section 2
2x Final verse
   Main riff + guitar 3 accompaniment during verse
   End on F power chord



************************************

LEGEND

W - whole note
H - half note
Q - quarter
E - eighth
S - sixteenth

^     - arpeggio upwards
(11)  - ghost note
(-)   - sustained note
9p7   - pull-off
3h5   - hammer-on
pb15  - pre-bend
14b15 - bend
15r14 - release
9/14  - slide upwards
/5    - slide in from below
7\    - slide out downwards
11~   - vibrato
11tr  - tremolo
*     - palm mute
Outros vídeos desta música
    73 exibições
      • ½ Tom
      • A
      • Bb
      • B
      • C
      • Db
      • D
      • Eb
      • E
      • F
      • F#
      • G
      • Ab
    • Adicionar à lista

    Afinação da cifra

    Afinador online

      0 comentários

      Ver todos os comentários

      Entre para o Cifra Club PRO

      Tenha acesso a benefícios exclusivos no App e no Site

      • Chega de anúncios

      • Badges exclusivas

      • Mais recursos no app do Afinador

      • Atendimento Prioritário

      • Aumente seu limite de lista

      • Ajude a produzir mais conteúdo

      Cifra Club Pro

      Aproveite o Cifra Club com benefícios exclusivos e sem anúncios
      Cifra Club Pro
      Aproveite o Cifra Club com benefícios exclusivos e sem anúncios
      Ops (: Contenido disponible sólo en portugués.
      OK