Cifra Club

Needles And Pins

Smokie

Cifra: Principal (violão e guitarra)
Selo Cifra Club: esta cifra foi revisada para atender aos critérios oficiais da nossa Equipe de Qualidade.
tom: Bbm
E|--------------------|
B|-2-0-2-0-3-2-0-0-2--|
G|-2-2-2-2-2-2-1-1-2--| x2
D|-2-2-2-2-2-2-2-2-2--|
A|-0-0-0-0-0-0-2-2-0--|
E|--------------------|

E|-----------------------|
B|-2-0-2-0-3-2-2-2-2-2---|
G|-2-2-2-2-2-2-2-2-2-2---| x2
D|-2-2-2-2-2-2-2-2-2-2---|
A|-0-0-0-0-0-0-0-0-0-0---|
E|-----------------------|


A
I saw her today

I saw her face
                F#m
It was a face I loved
                         A
And I knew, I had to run away
                             F#m
And get down on my knees and pray

That they'd go away

E|-----------------------|
B|-2-0-2-0-3-2-2-2-2-2---|
G|-2-2-2-2-2-2-2-2-2-2---| x2
D|-2-2-2-2-2-2-2-2-2-2---|
A|-0-0-0-0-0-0-0-0-0-0---|
E|-----------------------|


A
And still they begin
            F#m
Needles and pins
                  D
Because of all my pride
                    E
The tears I'm gonna hide
                  A
Oh, thought I was smart

I'd won a heart
               F#m
Didn't think I do

But now you see
                       A
She's worse to him and me

Let her go ahead
                 F#m
take this love instead

And one day she will see

E|-----------------------|
B|-2-0-2-0-3-2-2-2-2-2---|
G|-2-2-2-2-2-2-2-2-2-2---| x2
D|-2-2-2-2-2-2-2-2-2-2---|
A|-0-0-0-0-0-0-0-0-0-0---|
E|-----------------------|


A
Just how to say "please"
                 F#m
Get down on her knees
                       D
Ayeah, that's how they begin
                              E
She'll feel those needles and pins
                     E
Hurtin' her, hurtin' her

E|--------------------|
B|--------------------|
G|--------------------|
D|-11-9-7-------------|
A|-11-9-7-------------|
E|-9--7-5-------------|

 C#                                B                     B  A
Why can't I stop and tell myself I'm wrong, I'm wrong, so wrong

E|--------------------|
B|--------------------|
G|--------------------|
D|-11-9-7-------------|
A|-11-9-7-------------|
E|-9--7-5-------------|

 A                                        G#
Why can't I stand up, and tell myself I'm strong

(Key change)

C#
I saw her today

I saw her face
                A#m
It was a face I loved
                         C#
And I knew, I had to run away
                             A#m
And get down on my knees and pray

That they'd go away

E|-----------------------|
B|-6-4-6-4-7-4-4-4-4-4---|
G|-6-6-6-6-6-6-6-6-6-6---| x2
D|-6-6-6-6-6-6-6-6-6-6---|
A|-4-4-4-4-4-4-4-4-4-4---|
E|-----------------------|


C#
And still they begin
            A#m
Needles and pins
                  F#
Because of all my pride
                    G#
The tears I'm gonna hide

E|-----------------------|
B|-6-4-6-4-7-4-4-4-4-4---|
G|-6-6-6-6-6-6-6-6-6-6---| x2
D|-6-6-6-6-6-6-6-6-6-6---|
A|-4-4-4-4-4-4-4-4-4-4---|
E|-----------------------|

                 C#
Ah, needles and pins
            A#m
Needles and pins
            C#
Needles and pins
            A#m
Needles and pins
Outros vídeos desta música
    433 exibições
      • ½ Tom
      • Am
      • Bbm
      • Bm
      • Cm
      • C#m
      • Dm
      • Ebm
      • Em
      • Fm
      • F#m
      • Gm
      • G#m
    • Adicionar à lista

    Afinação da cifra

    Afinador online

      0 comentários

      Ver todos os comentários

      Entre para o Cifra Club PRO

      Tenha acesso a benefícios exclusivos no App e no Site

      • Chega de anúncios

      • Badges exclusivas

      • Mais recursos no app do Afinador

      • Atendimento Prioritário

      • Aumente seu limite de lista

      • Ajude a produzir mais conteúdo

      Cifra Club Pro

      Aproveite o Cifra Club com benefícios exclusivos e sem anúncios
      Cifra Club Pro
      Aproveite o Cifra Club com benefícios exclusivos e sem anúncios
      Ops (: Contenido disponible sólo en portugués.
      OK