Enviar cifraEntrar

Depois do Prazer

Só Pra Contrariar

Cifra: Principal
exibições 495.070
Tom: A
(intro) Bm7 Bm7 A A Bm7 Bm7 A A


Solo Intro


E|-------------------7---7---/10---10--9-9---------|
B|-------------7---7--11-------------------7-7-----|
G|-------7-6-7--10-----------------------------7-7-|
D|-9-8-9-------------------------------------------|
A|-------------------------------------------------|
E|-------------------------------------------------|


E|-9-10-7-9----------------------------------------|
B|----------10---9-10-7-9--------------------------|
G|------------------------9------------------------|
D|---------------------------6-9-8-7-6h7p6---6-----|
A|-----------------------------------------9-------|
E|-------------------------------------------------|


E|-------------------7---7---/10---10--9-9---------|
B|-------------7---7--11-------------------7-7-----|
G|-------7-6-7--10-----------------------------7-7-|
D|-9-8-9-------------------------------------------|
A|-------------------------------------------------|
E|-------------------------------------------------|


                                           Harm.

E|----9h10p9---------------------------------------|
B|-----------10------------------------------------|
G|------------------6h7p6--------------------------|
D|------------------------7----------------7-------|
A|------------------------------4h5p4--------------|
E|------------------------------------5------------|



A                              F#m7
   Tô fazendo amor com outra pessoa
              Bm              E/G#   D/F# E7
Mas meu coração vai ser pra sempre teu
A                            F#m7
   O que o corpo faz a alma perdoa
           Bm Bm/A         E/G#  D/F# E7
Tanta solidão   quase me enlouqueceu

(parte 2)
                  A
Vou falar que é amor
                   E/G#
Vou jurar que é paixão
     E/G                                F#7
E dizer o que sinto com todo carinho pensando em você
       Bm
Vou fazer o que for
          Bm7+
E com toda emoção
     Bm7                                      E7
A verdade é que eu minto que vivo sozinho não sei te esquecer

     A
E depois acabou
   E/G#
Ilusão que eu criei
   E/G                                  F#7
Emoção foi embora e a gente só pede pro tempo correr
       Bm
Já não sei quem me amou
       Bm7+
Que será que eu falei
       Bm7                                  E7
Da pra ver nessa hora que amor só se mede depois do prazer


(refrão)
A                                    F#m7
Fica dentro do meu peito sempre com saudade
 Bm                D                  E7
Só pensando no teu jeito eu amo de verdade
A                                     F#m7
E quando o desejo vem é teu nome que eu chamo
Bm                      D                    E7
Posso até gostar de alguém mas é você que eu amo


(base solo) A A F#m7 Bm Bm/A E/G# E/F# E7


(solo)

E|--------------------------------------------|
B|-2/5-5-3-2-0---2/5-5~-7-9h10-7-9h10-7-9h10-7|
G|-------------2------------------------------|
D|--------------------------------------------|
A|--------------------------------------------|
E|--------------------------------------------|


E|------7-9h10-7-9h10-7-9h10-7-9-10-10/12-10-9|
B|-9-10---------------------------------------|
G|--------------------------------------------|
D|--------------------------------------------|
A|--------------------------------------------|
E|--------------------------------------------|


E|-5-4-5-0------------------------------------|
B|---------3-2--------------------------------|
G|-------------2------------------------------|
D|--------------------------------------------|
A|--------------------------------------------|
E|--------------------------------------------|


(repete parte 2)
(repete refrão)
  • 1
  • 2
  • 3
  • 4
  • 5
  • 6
  • 7
  • 8
  • 9
  • 10
  • 11
  • 12
    Acordes para:
      Composição: Chico Roque / Sérgio CaetanoColaboração e revisão:
      • Diego f
      • Jean Santos
      • Marcos Martins

      0 comentários

        mostrar mais comentários

        Conseguiu tocar?

        16tocaram0ainda não

        Grave um vídeo tocando Depois do Prazer e mande pra gente!

        00:00 / 00:00
        outros vídeos desta música
        repetirqualidadeautomática
        • automática
        Outro vídeos desta música
          00:00 / 00:00
          automática
          • automática
          Acordes para:violão e guitarra
          dificuldadeexibiçõescontribuições
          fecharplay/pause subir/descer velocidade
            Acordes para:violão e guitarra
            acordes
            fechar
            OK