Cifra Club

Napalm In The Morning

Sodom

Cifra: Principal (violão e guitarra)
tom: D (forma dos acordes no tom de E) Afinação: D G C F A D
Afinação: D G C F A D 

Riff A (0:09) - Som Limpo:

D|----------------------------------------------------------------|
A|----------------------------------------------------------------|
F|------0-------0-------0--------------0-------0------------------|
C|----7---7---7---7---7---7----------4---4---4--4------4----------|
G|----------5-------4-----4----0-2-3-------5-----5---5---5--------|
D|--0----------------------------------------------7-------3/5-5--|

D|----------------------------------------------------------------|
A|----------------------------------------------------------------|
F|------0-------0-------0--------------0-------0------------------|
C|----7---7---7---7---7---7----------4---4---4--4------4----------|
G|----------5-------4-----4----0-2-3-------5-----5---5---5--------|
D|--0----------------------------------------------7-------3/5-5--|

D|------------------------|
A|------------------------|
F|--------0---------------|
C|------0---0-------5--4--|
G|----2-------2---2-3--3--|
D|--0-----------0---------|

Riff B - (0:46) - Distorcido:

D|----------3------------2-------------1-------------0----------|
A|--------0---0--------0---0---------0---0---------2---0--------|
F|------0-------0----0-------0-----0-------3-----0-------0------| 2x
C|--------------------------------------------------------------|
G|--------------------------------------------------------------|
D|--0-------------0--------------0-------------0----------------|

Riff C (1:04):

D|-----------------------------------------------------|
A|-----------------------------------------------------|
F|-----------------------------------------------------| 4x
C|--9-----9----10-9---7-9--10-9-----9------------------|
G|--7-----7-----8-7---5-7--8--7-----7-----8-7-5-7-5-7--|
D|--0-0-0-0-0-0-----0---------0-0-0-0-0-0-6-5-3-5-3-5--|
      . .   . .     .           . .   . .


Riff D1 (1:22):
                           Disease is just an irony of fate
D|-----------------------|
A|-----------------------|
F|-----------------------| 2x
C|--2------------8-------|
G|--2------------8-------|
D|--0-----0-0-0--6-------|
          . . .

Riff D2:
                                    ...I'm gonna lose control
D|---------------------------------------------------|
A|---------------------------------------------------|
F|---------------------------------------------------| 2x
C|---------------------------------------------------|
G|--2-----2-----2-----2-5-2-8-----8-----8-----8-7-5--|
D|--0-0-0-0-0-0-0-0-0-0-3-0-6-6-6-6-6-6-6-6-6-6-5-3--|
      . .   . .   . .         . .   . .   . .

Riff E (1:41):
                               You're gonna die!
D|--------------------------|
A|--------------------------|
F|--9-----------------------| 2x
C|--9-----------------------|
G|--7-------8---5-5---------|
D|-------0--6---3-3---------|

Riff F (1:51) - Na 2nd vez não toque as duas ultimas notas e pule para o Riff C:

D|---------------------------------------------------------------|
A|---------------------------------------------------------------|
F|---------------------------------------------------------------| 2x
C|------------4--5--5---4--4----------------4--5--5\4---7--7-----|
G|--2--2---5--2--3--3-0-2--2-7-5-2-2----5---2--3--3\2---5--5-5-4-|
D|--0--0-0-3-----------------5-3-0-0--0-3--------------------3-2-|
         .            .               .

Riff C  - 2x
Riff D1 - 2x
Riff D2 - 2x
Riff E - 2x
Riff F - 2x
Riff C - 2x

Riff G (3:26):

D|---------------------------------------------------|
A|---------------------------------------------------|
F|---------------------------------------------------| 4x
C|--2-2-2-3-2-2-5-2-2-------2-2-2-3-2-2-5-2-2--------|
G|--2-2-2-3-2-2-5-2-2-------2-2-2-3-2-2-5-2-2--------|
D|--0-0-0-1-0-0-3-0-0-0-0-0-0-0-0-1-0-0-3-0-0-3-5-6--|
                      .....

Riff H (3:45):

    d u d u d u d etc.
D|---------------------------------------------------|
A|---------------------------------------------------|
F|---------------------------------------------------| 4x
C|--2-8-7-5-7-2-2-8-7-5-7-2-2-8-7-5-7-2-5-2-2-7-2-8--|
G|--2-8-7-5-7-2-2-8-7-5-7-2-2-8-7-5-7-2-5-2-2-7-2-8--|
D|--0-6-5-3-5-0-0-6-5-3-5-0-0-6-5-3-5-0-3-0-0-5-0-6--|

Riff F - 2x:

Durante o solo:
Riff C - 3 1/2x

Riff I (4:40):

D|------------------------------------------------|
A|------------------------------------------------|
F|------------------------------------------------| 2x
C|---------10\9---------9\8--------8\7--7\6--6\5--|
G|----------8\7---------7\6--------6\5--5\4--4\3--|
D|--00000000----00000000---00000000---00---00-----|
    ........    ........   ........   ..   ..

Riff F - 2x
Riff C - 3 1/2x
Riff H - 4x termina com E5
00:00 / 00:00
Outros vídeos desta música
Repetir
Outros vídeos desta música
Composição de Sodom / Tom Angelripper
Colaboração e revisão:
  • Vitor Lucas
  • Krashiar AAEHO
  • gilmar
4.193 exibições
    • ½ Tom
    • A
    • Bb
    • B
    • C
    • Db
    • D
    • Eb
    • E
    • F
    • F#
    • G
    • Ab
  • Adicionar à lista

    0 comentários

    Ver todos os comentários

    Conseguiu tocar?

    2 Tocaram 0 Ainda não

    Grave um vídeo tocando Napalm In The Morning e nos envie!

    00:00 / 00:00

    Cifra Club Pro

    Aproveite o Cifra Club com benefícios exclusivos e sem anúncios
    Cifra Club Pro
    Aproveite o Cifra Club com benefícios exclusivos e sem anúncios
    OK