Cifra Club

Build Fear

Soilent Green

Cifra: Principal (violão e guitarra)
Selo Cifra Club: esta cifra foi revisada para atender aos critérios oficiais da nossa Equipe de Qualidade.
tom: D
Intro - One Guitar (Ben)
E|--------------12-12----------------------------------|----------5--5------------------------------------|
B|--------------12-12----------------------------------|----------5--5------------------------------------|
G|----------13--13-13----------------------------------|-------6--6--6------------------------------------|
D|----------14--14-14-----------5h7p5---5--------------|-------7--7--7------------5-----------------------|
A|----------14--14----------5-7-------7---7------------|-------7--7-----------5-7---7-5---5---------------|
E|--0---x-x-12--12------5-7------------------3--4--5---|---x-x-5--5-------5-7-----------7---7-5---3---0---|

Both Guitars
E|--------------12-12----------------------------------|----------5--5------------------------------------|
B|--------------15-15----------------------------------|----------8--8------------------------------------|
G|----------13--13-13----------------------------------|-------6--6--6------------------------------------|
D|----------14--14-14-----------5h7p5---5--------------|-------7--7--7------------5-----------------------|
A|----------14--14----------5-7-------7---7------------|-------7--7-----------5-7---7-5---5---------------|
E|--0---x-x-12--12------5-7------------------3--4--5---|---x-x-5--5-------5-7-----------7---7-5---3---0---|

E|--------------12-12----------------------------------|----------5--5-------------------------------|
B|--------------15-15----------------------------------|----------8--8-------------------------------|
G|----------13--13-13----------------------------------|-------6--6--6-------------------------------|
D|----------14--14-14-----------5h7p5---5--------------|-------7--7--7------------5------------------|
A|----------14--14----------5-7-------7---7--2--3--4---|-------7--7-----------5-7---7-5---5---7---5--|
E|--0---x-x-12--12------5-7------------------3--4--5---|---x-x-5--5-------5-7-----------7---7-5---3--|

Heavy kicks in - One Guitar (Ben)
E|--------------------------|
B|--------------------------|
G|--------------------------|
D|---7-----9----7-----9-----|
A|-9-5-9-7-7--9-5-9-7-7---8-|
E|-7---7-5-7--7---7-5-7---6-| x4

Both Guitars
E|---------------------------|---------------------------|
B|---------------------------|---------------------------|
G|---------------------------|---------------------------|
D|----7-----9----7-----9-----|----7-----9----7-----------|
A|-9--5-9-7-7--9-5-9-7-7---8-|-9--5-9-7-7--9-5-9-7-7---8-|
E|-7----7-5----7---7-5-7---6-|-7----7-5----7---7-5-7---6-|

E|------------------------------|------------------------|
B|------------------------------|------------------------|
G|------------------------------|------------------------|
D|-------7-----9----7-----9-----|----7-----9----7-----9--|
A|-7---9-5-9-7-7--9-5-9-7-7---8-|-9--5-9-7-7--9-5-9-7-7--|
E|-5---7---7-5-7--7---7-5-7---6-|-7----7-5----7---7-5-7--|
Second Guitar comes in, listen out for the change up in the 3rd bar

E|-----------------------------------------|
B|-----------------------------------------|
G|-----------------------------------------|
D|-----------------------------------------|
A|--7---5--5-5-5-5-5-5-5--6-8-7-8-6-7--7---|
E|--5---3--3-3-3-3-3-3-3--4-6-5-6-4-5--5---| x2

E|-------------------------------------------|----------------------------------------------------|
B|-------------------------------------------|----------------------------------------------------|
G|-------------------------------------------|----------------------------------------------------|
D|-------------------------------------------|----------------------------------------------9-----|
A|--8-10--8-9-10------------8--10---8-9-10---|---8-10--8-9-10------------8--10--8-9-10---9--7--8--|
E|--6-8---6-7-8---2-3-4-5---6--8----6-7-8----|---6-8---6-7-8---2-3-4-5---6--8---6-7-8----7--7--6--|
Trem pick        .......                                      .......

E|-------------------------------------------|------------------------------------|
B|-------------------------------------------|------------------------------------|
G|-------------------------------------------|------------------------------------|
D|-------------------------------------------|------------------------------------|
A|--8-10--8-9-10------------8--10---8-9-10---|---8--10-8-9-10------------9--8-7---|
E|--6-8---6-7-8---2-3-4-5---6--8----6-7-8----|---6--8--6-7-8---2-3-4-5---7--6-5---|
Trem pick        .......                                      .......

E|-----------------------------------------|
B|-----------------------------------------|
G|-----------------------------------------|
D|-----------------------------------------|
A|--7---5--5-5-5-5-5-5-5--6-8-7-8-6-7--7---|
E|--5---3--3-3-3-3-3-3-3--4-6-5-6-4-5--5---| x4

E|----------------|
B|----------------|
G|----------------|
D|----------------|
A|--8-10--8-9-10--|
E|--6-8---6-7-8---|
Play x2, then x4 fast grindcore style.

E|--------------------------------------------------|
B|--------------------------------------------------|
G|--------------------------------------------------|
D|--------------------------------------------------|
A|--2-----5-----5--77-----5--77-----2/4----4-5-4-3--|
E|--0--0--3--0--3--55--0--3--55--0--3/5--0-2-3-2-1--| x3

E|-------------------------------------------------------------|
B|-------------------------------------------------------------|
G|-------------------------------------------------------------|
D|-------------------------------------------------------------|
A|--2-----5-----5--7-----8-----7-----5-7-8-7-5-7-5----4-5-4-3--|
E|--0--0--3--0--3--5--0--6--0--5--0--3-5-6-5-3-5-3-0--2-3-2-1--|

E|-------------|
B|-------------|
G|-------------|
D|-------------|
A|---3----2----|
E|---1----0----|
I am not tabbing the rhythm for this riff it literally alternates these two chords, 
easy af just listen to the record.

[Outro]
E|---------------------------------------------------------------------------------------------|
B|---------------------------------------------------------------------------------------------|
G|---------------------------------------------------------------------------------------------|
D|---------------------------5---------------5h7-^7-5---5--------------------------------------|
A|-----------7-----------5h7-------------5h7----------7---7-5---5-------8-9-8-7-----5---5-7----|
E|--0----5h7----0----5h7--------0----5h7----------------------7---7-5-0-6-7-6-5v--0-3-0-3-5-0--|

E|-------------------------------------------------------------------------------|
B|-------------------------------------------------------------------------------|
G|-------------------------------------------------------------------------------|
D|---------------------------5---------------5h7-^7-5---5------------------------|
A|-----------7-----------5h7-------------5h7----------7---7-5---5-------8-9-8-7--|
E|--0----5h7----0----5h7--------0----5h7----------------------7---7-5-0-6-7-6-5--|

************************************

| h  Hammer-on
| p  Pull-off
| x  Dead note
| /  Slide up
Outros vídeos desta música
    21 exibições
      • ½ Tom
      • A
      • Bb
      • B
      • C
      • Db
      • D
      • Eb
      • E
      • F
      • F#
      • G
      • Ab
    • Adicionar à lista

    Afinação da cifra

    Afinador online

      0 comentários

      Ver todos os comentários

      Conseguiu tocar?

      0Tocaram0Ainda não

      Grave um vídeo tocando Build Fear e nos envie!

      Toque também

      1. Imagem do artista Acid BathScream Of The Butterfly Acid Bath
      2. Imagem do artista CrowbarDead Sun Crowbar
      3. Imagem do artista EyehategodTake As Needed For Pain Eyehategod
      4. Imagem do artista Cephalic CarnagePiecemaker Cephalic Carnage

      Entre para o Cifra Club PRO

      Tenha acesso a benefícios exclusivos no App e no Site

      • Chega de anúncios

      • Badges exclusivas

      • Mais recursos no app do Afinador

      • Atendimento Prioritário

      • Aumente seu limite de lista

      • Ajude a produzir mais conteúdo

      Cifra Club Pro

      Aproveite o Cifra Club com benefícios exclusivos e sem anúncios
      Cifra Club Pro
      Aproveite o Cifra Club com benefícios exclusivos e sem anúncios
      Ops (: Contenido disponible sólo en portugués.
      OK