Cifra Club

I Have Come To Worship

Sonicflood

Cifra: Principal (violão e guitarra)
Selo Cifra Club: esta cifra foi revisada para atender aos critérios oficiais da nossa Equipe de Qualidade.
tom: Bm
E|E|-------------------------------------------------------------------------------||
                  I HAVE COME TO WORSHIP - Sonicflood
E|E|-------------------------------------------------------------------------------||
Tabbed By: 0GibsonLesPaul0

Tuning: Standard


INTRO

E|--------|---------------------------------------------------|
B|--------|---------------------------------------------------|
G|-2~*/---|---------------------------------------------------|
D|--------|-7---9-7---9-7---9-7------7---9-7---9-7---9-7---9--|
A|--------|-7---9-7---9-7---9-7------7---9-7---9-7---9-7---9--|
E|--------|-5---7-5---7-5---7-5------5---7-5---7-5---7-5---7--|
 |*wide vabrato
 |
 |
 |
E|--------|---------------------------------------------------|
B|--------|---------------------------------------------------|
G|-2---/--|---------------------------------------------------|
D|-2---/--|-7---9-7---9-7---9-7------7---9-7---9-7---9-7---9--|
A|-0---/--|-7---9-7---9-7---9-7------7---9-7---9-7---9-7---9--|
E|--------|-5---7-5---7-5---7-5------5---7-5---7-5---7-5---7--|


VERSE

E|---------------------|
B|---------------------|
G|-4----5----4----5----|
D|-4----5----4----5----|
A|-2----3----2----3----|
E|---------------------|


PD  CHORUS

E|---------------------------------------|
B|---------------------------------------|
G|-2---------------------------7----5----|
D|-2----2----------------------7----5----|
A|-0----2----------------------5----3----|
E|------0--------------------------------|
 |
 |
 |
 |
E|---------------------------------------|
B|-2~------------------------------------|
G|-----------------------------7----5----|
D|------4b5-5p4\2~-/4b5-5p4/2--7----5----|
A|-----------------------------5----3----|
E|---------------------------------------|


CHORUS

E|------------------------------------------------|
B|------------------------------------------------|
G|------------------------------------------------|
D|-7---9-7---9-7---9-7------7---9-7---9-7---9-7---|
A|-7---9-7---9-7---9-7------7---9-7---9-7---9-7---|
E|-5---7-5---7-5---7-5------5---7-5---7-5---7-5---|


PD  CHORUS

E|---------------------------------------|
B|---------------------------------------|
G|-2---------------------------7----5----|
D|-2----2----------------------7----5----|
A|-0----2----------------------5----3----|
E|------0--------------------------------|
 |
 |
 |
 |
E|---------------------------------------|
B|-2~------------------------------------|
G|-----------------------------7----5----|
D|------4b5-5p4\2~-/4b5-5p4/2--7----5----|
A|-----------------------------5----3----|
E|---------------------------------------|


CHORUS

E|------------------------------------------------|
B|------------------------------------------------|
G|------------------------------------------------|
D|-7---9-7---9-7---9-7------7---9-7---9-7---9-7---|
A|-7---9-7---9-7---9-7------7---9-7---9-7---9-7---|
E|-5---7-5---7-5---7-5------5---7-5---7-5---7-5---|


BRIDGE

E|---------------------------------------------------|
B|---------------------------------------------------|
G|-2----4--------------7---------4----2---------7----|
D|-2----4----4----5----7----4----4----2----5----7----|
A|-0----2----4----5----5----4----2----0----5----5----|
E|-----------2----3---------2--------------3---------|
Outros vídeos desta música
    7 exibições
      • ½ Tom
      • Am
      • Bbm
      • Bm
      • Cm
      • C#m
      • Dm
      • Ebm
      • Em
      • Fm
      • F#m
      • Gm
      • G#m
    • Adicionar à lista

    Afinação da cifra

    Afinador online

      0 comentários

      Ver todos os comentários

      Entre para o Cifra Club PRO

      Tenha acesso a benefícios exclusivos no App e no Site

      • Chega de anúncios

      • Badges exclusivas

      • Mais recursos no app do Afinador

      • Atendimento Prioritário

      • Aumente seu limite de lista

      • Ajude a produzir mais conteúdo

      Cifra Club Pro

      Aproveite o Cifra Club com benefícios exclusivos e sem anúncios
      Cifra Club Pro
      Aproveite o Cifra Club com benefícios exclusivos e sem anúncios
      Ops (: Contenido disponible sólo en portugués.
      OK