Cifra Club

Dirty Ickes

Sorority Noise

Cifra: Principal (violão e guitarra)
Selo Cifra Club: esta cifra foi revisada para atender aos critérios oficiais da nossa Equipe de Qualidade.
tom: Bm
E|-------------------------------------------| |----------------------------|
B|-------------------------------------------| |----------------------------|
G|--1----------------------------------------| |--111--1-111--[x3]----------|
D|--2-(ho| ld)------------4-(hold)------6--7---| [x2]  |--222--2-222-------4-6-7-9--| [x4]
A|--2-------------------4-------------6--7---| |--222--2-222-------4-6-7-9--|
E|--2-------------------4-------------6--7---| |--222--2-222-------4-6-7-9--|

GUITAR 2
E|-------------------------------------------| |----------------------------|
B|-------------------------------------------| |----------------------------|
G|---9---------------------------------------| |--999--9-999--[x3]----------|
D|---9(ho| ld)-------------4(hold)----6--7-----| [x2]  |--999--9-999-------4-6-7-9--| [x4]
A|---7-------------------4----------6--7-----| |--777--7-777-------4-6-7-9--|
E|-----------------------4----------6--7-----| |---------777-------4-6-7-9--|

[VERSE 1/2]
"and i taught myself..."
GUITAR 1
E|--------|
B|--------|
G|--1--*--| * = random feedback
D|--2--*--|
A|--2--*--|
E|--2--*--|

GUITAR 2
E|------|
B|------|
G|--9-*-|
D|--9-*-| *more random feedback
A|--7-*-|
E|------|

[Pre-Chorus]
"and I'm not going anywhere..."
GUITAR 1
E|-----------------|
B|-----------------|
G|--11-9-7-11-9-1--|
D|--11-9-7-11-9-2--|
A|--11-9-7-11-9-2--|
E|--------------2--|

GUITAR 2
E|------0-----------|
B|------0-----------|
G|--6-4-2-6-8-11-9--|
D|--6-4-2-6-8-11-9--|
A|--4-2-0-4-6-9--7--|
E|------------------|

[Chorus]
 "when we broke up..."               "...ever love you"
GUITAR 1
E|-------------------------------------------| |----------------------------|
B|-------------------------------------------| |----------------------------|
G|--1----------------------------------------| |--111--1-111--[x3]----------|
D|--2-(ho| ld)------------4-(hold)------6--7---| [x2]  |--222--2-222-------4-6-7-9--| [x4]
A|--2-------------------4-------------6--7---| |--222--2-222-------4-6-7-9--|
E|--2-------------------4-------------6--7---| |--222--2-222-------4-6-7-9--|

GUITAR 2
E|-------------------------------------------| |----------------------------|
B|-------------------------------------------| |----------------------------|
G|---9---------------------------------------| |--999--9-999--[x3]----------|
D|---9(ho| ld)-------------4(hold)----6--7-----| [x2]  |--999--9-999-------4-6-7-9--| [x4]
A|---7-------------------4----------6--7-----| |--777--7-777-------4-6-7-9--|
E|-----------------------4----------6--7-----| |---------777-------4-6-7-9--|

[Outro]
"and I'm not going anywhere..."
GUITAR 1
E|-----------------|
B|-----------------|
G|--11-9-7-11-9-1--|
D|--11-9-7-11-9-2--|
A|--11-9-7-11-9-2--|
E|--------------2--|

GUITAR 2
E|------0-----------|
B|------0-----------|
G|--6-4-2-6-8-11-9--|
D|--6-4-2-6-8-11-9--|
A|--4-2-0-4-6-9--7--|
E|------------------|
Outros vídeos desta música
    0 exibições
      • ½ Tom
      • Am
      • Bbm
      • Bm
      • Cm
      • C#m
      • Dm
      • Ebm
      • Em
      • Fm
      • F#m
      • Gm
      • G#m
    • Adicionar à lista

    Afinação da cifra

    Afinador online

      0 comentários

      Ver todos os comentários

      Entre para o Cifra Club PRO

      Tenha acesso a benefícios exclusivos no App e no Site

      • Chega de anúncios

      • Badges exclusivas

      • Mais recursos no app do Afinador

      • Atendimento Prioritário

      • Aumente seu limite de lista

      • Ajude a produzir mais conteúdo

      Cifra Club Pro

      Aproveite o Cifra Club com benefícios exclusivos e sem anúncios
      Cifra Club Pro
      Aproveite o Cifra Club com benefícios exclusivos e sem anúncios
      Ops (: Contenido disponible sólo en portugués.
      OK